  0
SECTION
  2
HEADER
  9
$ACADVER
  1
AC1014
  9
$ACADMAINTVER
  70
     0
  9
$DWGCODEPAGE
  3
ANSI_1251
  9
$INSBASE
  10
0.0000000000
  20
0.0000000000
  30
0.0000000000
  9
$EXTMIN
  10
-509.1663624831
  20
-79.2831285383
  30
0.0000000000
  9
$EXTMAX
  10
88.1023289275
  20
170.2221952697
  30
0.0000000000
  9
$LIMMIN
  10
-509.1663624831
  20
-79.2831285383
  9
$LIMMAX
  10
88.1023289275
  20
170.2221952697
  9
$ORTHOMODE
  70
     0
  9
$REGENMODE
  70
     1
  9
$FILLMODE
  70
     1
  9
$QTEXTMODE
  70
     0
  9
$MIRRTEXT
  70
     1
  9
$DRAGMODE
  70
     2
  9
$LTSCALE
  40
1.0000000000
  9
$OSMODE
  70
     0
  9
$ATTMODE
  70
     1
  9
$TEXTSIZE
  40
5.0000000000
  9
$TRACEWID
  40
5.0000000000
  9
$TEXTSTYLE
  7
K5_TEXTSTYLE
  9
$CLAYER
  8
0
  9
$CELTYPE
  6
BYLAYER
  9
$CECOLOR
  62
     256
  9
$CELTSCALE
  40
1.0000000000
  9
$DELOBJ
  70
     1
  9
$DISPSILH
  70
     0
  9
$DIMSCALE
  40
1.0000000000
  9
$DIMASZ
  40
5.0000000000
  9
$DIMEXO
  40
2.0000000000
  9
$DIMDLI
  40
10.0000000000
  9
$DIMRND
  40
0.0000000000
  9
$DIMDLE
  40
0.0000000000
  9
$DIMEXE
  40
5.0000000000
  9
$DIMTP
  40
0.0000000000
  9
$DIMTM
  40
0.0000000000
  9
$DIMTXT
  40
5.0000000000
  9
$DIMCEN
  40
2.0000000000
  9
$DIMTSZ
  40
0.0000000000
  9
$DIMTOL
  70
     0
  9
$DIMLIM
  70
     0
  9
$DIMTIH
  70
     1
  9
$DIMTOH
  70
     1
  9
$DIMSE1
  70
     0
  9
$DIMSE2
  70
     0
  9
$DIMTAD
  70
     0
  9
$DIMZIN
  70
     0
  9
$DIMBLK
  1

  9
$DIMASO
  70
     0
  9
$DIMSHO
  70
     0
  9
$DIMPOST
  1

  9
$DIMAPOST
  1

  9
$DIMALT
  70
     0
  9
$DIMALTD
  70
     2
  9
$DIMALTF
  40
25.4000000000
  9
$DIMLFAC
  40
1.0000000000
  9
$DIMTOFL
  70
     0
  9
$DIMTVP
  40
0.0000000000
  9
$DIMTIX
  70
     0
  9
$DIMSOXD
  70
     0
  9
$DIMSAH
  70
     0
  9
$DIMBLK1
  1

  9
$DIMBLK2
  1

  9
$DIMSTYLE
  2
K5_DIMSTYLE
  9
$DIMCLRD
  70
     0
  9
$DIMCLRE
  70
     0
  9
$DIMCLRT
  70
     0
  9
$DIMTFAC
  40
0.6660000000
  9
$DIMGAP
  40
0.6250000000
  9
$DIMJUST
  70
     0
  9
$DIMSD1
  70
     0
  9
$DIMSD2
  70
     0
  9
$DIMTOLJ
  70
     1
  9
$DIMTZIN
  70
     0
  9
$DIMALTZ
  70
     0
  9
$DIMALTTZ
  70
     0
  9
$DIMFIT
  70
     3
  9
$DIMUPT
  70
     0
  9
$DIMUNIT
  70
     8
  9
$DIMDEC
  70
     4
  9
$DIMTDEC
  70
     4
  9
$DIMALTU
  70
     8
  9
$DIMALTTD
  70
     4
  9
$DIMTXSTY
  7
K5_DIMSTYLE
  9
$DIMAUNIT
  70
     0
  9
$LUNITS
  70
     2
  9
$LUPREC
  70
     4
  9
$SKETCHINC
  40
2.5000000000
  9
$FILLETRAD
  40
0.0000000000
  9
$AUNITS
  70
     0
  9
$AUPREC
  70
     4
  9
$MENU
  1
acad
  9
$ELEVATION
  40
0.0000000000
  9
$PELEVATION
  40
0.0000000000
  9
$THICKNESS
  40
0.0000000000
  9
$LIMCHECK
  70
     0
  9
$BLIPMODE
  70
     1
  9
$CHAMFERA
  40
10.0000000000
  9
$CHAMFERB
  40
10.0000000000
  9
$CHAMFERC
  40
20.0000000000
  9
$CHAMFERD
  40
0.0000000000
  9
$SKPOLY
  70
     0
  9
$TDCREATE
  40
2446473.5191170140
  9
$TDUPDATE
  40
2447857.1770920139
  9
$TDINDWG
  40
0.0047545139
  9
$TDUSRTIMER
  40
0.0047545139
  9
$USRTIMER
  70
     1
  9
$ANGBASE
  50
0.0000000000
  9
$ANGDIR
  70
     0
  9
$PDMODE
  70
     0
  9
$PDSIZE
  40
0.0000000000
  9
$PLINEWID
  40
0.0000000000
  9
$COORDS
  70
     0
  9
$SPLFRAME
  70
     0
  9
$SPLINETYPE
  70
     6
  9
$SPLINESEGS
  70
     8
  9
$ATTDIA
  70
     0
  9
$ATTREQ
  70
     1
  9
$HANDLING
  70
     1
  9
$HANDSEED
  5
1a6
  9
$SURFTAB1
  70
     6
  9
$SURFTAB2
  70
     6
  9
$SURFTYPE
  70
     6
  9
$SURFU
  70
     6
  9
$SURFV
  70
     6
  9
$UCSNAME
  2

  9
$UCSORG
  10
0.0000000000
  20
0.0000000000
  30
0.0000000000
  9
$UCSXDIR
  10
1.0000000000
  20
0.0000000000
  30
0.0000000000
  9
$UCSYDIR
  10
0.0000000000
  20
1.0000000000
  30
0.0000000000
  9
$PUCSNAME
  2

  9
$PUCSORG
  10
0.0000000000
  20
0.0000000000
  30
0.0000000000
  9
$PUCSXDIR
  10
1.0000000000
  20
0.0000000000
  30
0.0000000000
  9
$PUCSYDIR
  10
0.0000000000
  20
1.0000000000
  30
0.0000000000
  9
$USERI1
  70
     0
  9
$USERI2
  70
     0
  9
$USERI3
  70
     0
  9
$USERI4
  70
     0
  9
$USERI5
  70
     0
  9
$USERR1
  40
0.0000000000
  9
$USERR2
  40
0.0000000000
  9
$USERR3
  40
0.0000000000
  9
$USERR4
  40
0.0000000000
  9
$USERR5
  40
0.0000000000
  9
$WORLDVIEW
  70
     1
  9
$SHADEDGE
  70
     3
  9
$SHADEDIF
  70
     70
  9
$TILEMODE
  70
     1
  9
$MAXACTVP
  70
     48
  9
$PINSBASE
  10
0.0000000000
  20
0.0000000000
  30
0.0000000000
  9
$PLIMCHECK
  70
     0
  9
$PEXTMIN
  10
100000000000000000000.000000
  20
100000000000000000000.000000
  30
100000000000000000000.000000
  9
$PEXTMAX
  10
-100000000000000000000.000000
  20
-100000000000000000000.000000
  30
-100000000000000000000.000000
  9
$PLIMMIN
  10
0.0000000000
  20
0.0000000000
  9
$PLIMMAX
  10
88.1023289275
  20
170.2221952697
  9
$UNITMODE
  70
     0
  9
$VISRETAIN
  70
     1
  9
$PLINEGEN
  70
     0
  9
$PSLTSCALE
  70
     1
  9
$TREEDEPTH
  70
     3020
  9
$PICKSTYLE
  70
     1
  9
$CMLSTYLE
  2
STANDARD
  9
$CMLJUST
  70
     0
  9
$CMLSCALE
  40
20.0000000000
  9
$PROXYGRAPHICS
  70
     1
  9
$MEASUREMENT
  70
     1
  0
ENDSEC
  0
SECTION
  2
CLASSES
  0
ENDSEC
  0
SECTION
  2
TABLES
  0
TABLE
  2
VPORT
  5
8
100
AcDbSymbolTable
  70
     2
  0
VPORT
  5
1a5
100
AcDbSymbolTableRecord
100
AcDbViewportTableRecord
  2
*ACTIVE
  70
     0
  10
0.0000000000
  20
0.0000000000
  11
1.0000000000
  21
1.0000000000
  12
223.7556630000
  22
574.2795120000
  13
0.0000000000
  23
0.0000000000
  14
10.0000000000
  24
10.0000000000
  15
10.0000000000
  25
10.0000000000
  16
0.0000000000
  26
0.0000000000
  36
1.0000000000
  17
0.0000000000
  27
0.0000000000
  37
0.0000000000
  40
1168.3044060000
  41
1.6961330000
  42
50.0000000000
  43
0.0000000000
  44
0.0000000000
  50
0.0000000000
  51
0.0000000000
  71
     0
  72
     100
  73
     1
  74
     1
  75
     0
  76
     0
  77
     0
  78
     0
  0
ENDTAB
  0
TABLE
  2
LTYPE
  5
5
100
AcDbSymbolTable
  70
     6
  0
LTYPE
  5
13
100
AcDbSymbolTableRecord
100
AcDbLinetypeTableRecord
  2
BYBLOCK
  70
     0
  3
 
  72
     65
  73
     0
  40
0.0000000000
  0
LTYPE
  5
14
100
AcDbSymbolTableRecord
100
AcDbLinetypeTableRecord
  2
BYLAYER
  70
     0
  3
 
  72
     65
  73
     0
  40
0.0000000000
  0
LTYPE
  5
15
100
AcDbSymbolTableRecord
100
AcDbLinetypeTableRecord
  2
CONTINUOUS
  70
     0
  3
 
  72
     65
  73
     0
  40
0.0000000000
  0
LTYPE
  5
22
100
AcDbSymbolTableRecord
100
AcDbLinetypeTableRecord
  2
K5LT_THIN
  70
     64
  3
 
  72
     65
  73
     0
  40
0.0000000000
  0
LTYPE
  5
3e
100
AcDbSymbolTableRecord
100
AcDbLinetypeTableRecord
  2
K5LT_BASIC
  70
     64
  3
 
  72
     65
  73
     0
  40
0.0000000000
  0
LTYPE
  5
70
100
AcDbSymbolTableRecord
100
AcDbLinetypeTableRecord
  2
K5LT_AXLED
  70
     64
  3
 
  72
     65
  73
     4
  40
18.5039930344
  49
14.0039930344
  74
     0
  49
-1.5000000000
  74
     0
  49
1.5000000000
  74
     0
  49
-1.5000000000
  74
     0
  0
ENDTAB
  0
TABLE
  2
LAYER
  5
2
100
AcDbSymbolTable
  70
     2
  0
LAYER
  5
e
100
AcDbSymbolTableRecord
100
AcDbLayerTableRecord
  2
0
  70
     0
  62
     7
  6
CONTINUOUS
  0
LAYER
  5
3c
100
AcDbSymbolTableRecord
100
AcDbLayerTableRecord
  2
Системный_слой
  70
     0
  62
     7
  6
CONTINUOUS
  0
ENDTAB
  0
TABLE
  2
STYLE
  5
3
100
AcDbSymbolTable
  70
     3
  0
STYLE
  5
f
100
AcDbSymbolTableRecord
100
AcDbTextStyleTableRecord
  2
K5_TEXTSTYLE
  70
     0
  40
0.0000000000
  41
0.7000000000
  50
15.0000000000
  71
     0
  42
5.0000000000
  3
win_eskd.shx
  4
b_eskd.shx
  0
STYLE
  5
10
100
AcDbSymbolTableRecord
100
AcDbTextStyleTableRecord
  2
K5_SYMBOLTEXTSTYLE
  70
     0
  40
0.0000000000
  41
0.7000000000
  50
0.0000000000
  71
     0
  42
5.0000000000
  3
win_eskd.shx
  4
b_eskd.shx
  0
STYLE
  5
11
100
AcDbSymbolTableRecord
100
AcDbTextStyleTableRecord
  2
K5_DIMSTYLE
  70
     0
  40
0.0000000000
  41
0.7000000000
  50
15.0000000000
  71
     0
  42
5.0000000000
  3
win_eskd.shx
  4
b_eskd.shx
  0
ENDTAB
  0
TABLE
  2
VIEW
  5
6
100
AcDbSymbolTable
  70
     0
  0
ENDTAB
  0
TABLE
  2
UCS
  5
7
100
AcDbSymbolTable
  70
     0
  0
ENDTAB
  0
TABLE
  2
APPID
  5
9
100
AcDbSymbolTable
  70
     1
  0
APPID
  5
12
100
AcDbSymbolTableRecord
100
AcDbRegAppTableRecord
  2
ACAD
  70
     0
  0
ENDTAB
  0
TABLE
  2
DIMSTYLE
  5
a
100
AcDbSymbolTable
  70
     1
  0
DIMSTYLE
  105
1e
102
{ACAD_REACTORS
102
}
100
AcDbSymbolTableRecord
100
AcDbDimStyleTableRecord
  2
K5_DIMSTYLE
  70
     0
  3
 
  4
 
  5

  6

  7

  40
1.0000000000
  41
1.0000000000
  42
0.0000000000
  43
2.0000000000
  44
2.0000000000
  45
0.0000000000
  46
5.0000000000
  47
0.0000000000
  48
0.0000000000
  140
5.0000000000
  141
5.0000000000
  142
0.0000000000
  143
0.0394000000
  144
1.0000000000
  145
1.0000000000
  146
0.6660000000
  147
1.0000000000
  71
     0
  72
     0
  73
     0
  74
     0
  75
     0
  76
     0
  77
     1
  78
     8
  170
     0
  171
     2
  172
     1
  173
     0
  174
     0
  175
     0
  176
     7
  177
     7
  178
     7
  270
     8
  271
     2
  272
     4
  273
     8
  274
     4
  278
     44
  279
     0
  340
11
  275
     0
  280
     0
  281
     0
  282
     0
  283
     1
  284
     0
  285
     0
  286
     0
  287
     3
  288
     0
  0
ENDTAB
  0
TABLE
  2
BLOCK_RECORD
  5
1
100
AcDbSymbolTable
  70
     12
  0
BLOCK_RECORD
  5
18
100
AcDbSymbolTableRecord
100
AcDbBlockTableRecord
  2
*PAPER_SPACE
  0
BLOCK_RECORD
  5
1b
100
AcDbSymbolTableRecord
100
AcDbBlockTableRecord
  2
*MODEL_SPACE
  0
BLOCK_RECORD
  5
20
100
AcDbSymbolTableRecord
100
AcDbBlockTableRecord
  2
K5_INSIDE
  0
BLOCK_RECORD
  5
2a
100
AcDbSymbolTableRecord
100
AcDbBlockTableRecord
  2
K5_OUTSIDE
  0
BLOCK_RECORD
  5
34
100
AcDbSymbolTableRecord
100
AcDbBlockTableRecord
  2
K5_DOT
  0
BLOCK_RECORD
  5
38
100
AcDbSymbolTableRecord
100
AcDbBlockTableRecord
  2
K5_OBLIQUE
  0
BLOCK_RECORD
  5
ae
100
AcDbSymbolTableRecord
100
AcDbBlockTableRecord
  2
*U0
  0
BLOCK_RECORD
  5
e9
100
AcDbSymbolTableRecord
100
AcDbBlockTableRecord
  2
*U1
  0
BLOCK_RECORD
  5
ee
100
AcDbSymbolTableRecord
100
AcDbBlockTableRecord
  2
*U2
  0
BLOCK_RECORD
  5
10e
100
AcDbSymbolTableRecord
100
AcDbBlockTableRecord
  2
*X0
  0
BLOCK_RECORD
  5
155
100
AcDbSymbolTableRecord
100
AcDbBlockTableRecord
  2
*X1
  0
BLOCK_RECORD
  5
197
100
AcDbSymbolTableRecord
100
AcDbBlockTableRecord
  2
*X2
  0
ENDTAB
  0
ENDSEC
  0
SECTION
  2
BLOCKS
  0
BLOCK
  5
16
100
AcDbEntity
  8
0
100
AcDbBlockBegin
  2
*PAPER_SPACE
  70
     0
  10
0.0000000000
  20
0.0000000000
  30
0.0000000000
  3
*PAPER_SPACE
  1
 
  0
ENDBLK
  5
17
100
AcDbEntity
  8
0
100
AcDbBlockEnd
  0
BLOCK
  5
19
100
AcDbEntity
  8
0
100
AcDbBlockBegin
  2
*MODEL_SPACE
  70
     0
  10
0.0000000000
  20
0.0000000000
  30
0.0000000000
  3
*MODEL_SPACE
  1
 
  0
ENDBLK
  5
1a
100
AcDbEntity
  8
0
100
AcDbBlockEnd
  0
BLOCK
  5
1f
100
AcDbEntity
  8
Системный_слой
100
AcDbBlockBegin
  2
K5_INSIDE
  70
     0
  10
0.0000000000
  20
0.0000000000
  30
0.0000000000
  0
LINE
  5
21
100
AcDbEntity
  8
Системный_слой
100
AcDbLine
  6
K5LT_THIN
  62
     7
  10
0.0000000000
  20
0.0000000000
  30
0.0000000000
  11
5.0000000000
  21
0.6582599878
  31
0.0000000000
  0
LINE
  5
23
100
AcDbEntity
  8
Системный_слой
100
AcDbLine
  6
K5LT_THIN
  62
     7
  10
5.0000000000
  20
0.6582599878
  30
0.0000000000
  11
4.5000000000
  21
-0.0000000000
  31
0.0000000000
  0
LINE
  5
24
100
AcDbEntity
  8
Системный_слой
100
AcDbLine
  6
K5LT_THIN
  62
     7
  10
4.5000000000
  20
0.0000000000
  30
0.0000000000
  11
5.0000000000
  21
-0.6582599878
  31
0.0000000000
  0
LINE
  5
25
100
AcDbEntity
  8
Системный_слой
100
AcDbLine
  6
K5LT_THIN
  62
     7
  10
5.0000000000
  20
-0.6582599878
  30
0.0000000000
  11
0.0000000000
  21
-0.0000000000
  31
0.0000000000
  0
SOLID
  5
26
100
AcDbEntity
  8
Системный_слой
100
AcDbTrace
  10
0.0000000000
  20
0.0000000000
  30
0.0000000000
  11
5.0000000000
  21
0.6582599878
  31
0.0000000000
  12
4.5000000000
  22
-0.0000000000
  32
0.0000000000
  13
0.0000000000
  23
0.0000000000
  33
0.0000000000
  0
SOLID
  5
27
100
AcDbEntity
  8
Системный_слой
100
AcDbTrace
  10
5.0000000000
  20
-0.6582599878
  30
0.0000000000
  11
0.0000000000
  21
-0.0000000000
  31
0.0000000000
  12
4.5000000000
  22
0.0000000000
  32
0.0000000000
  13
5.0000000000
  23
-0.6582599878
  33
0.0000000000
  0
ENDBLK
  5
28
100
AcDbEntity
  8
Системный_слой
100
AcDbBlockEnd
  0
BLOCK
  5
29
100
AcDbEntity
  8
Системный_слой
100
AcDbBlockBegin
  2
K5_OUTSIDE
  70
     0
  10
0.0000000000
  20
0.0000000000
  30
0.0000000000
  0
LINE
  5
2b
100
AcDbEntity
  8
Системный_слой
100
AcDbLine
  6
K5LT_THIN
  62
     7
  10
0.0000000000
  20
0.0000000000
  30
0.0000000000
  11
-5.0000000000
  21
0.6582599878
  31
0.0000000000
  0
LINE
  5
2c
100
AcDbEntity
  8
Системный_слой
100
AcDbLine
  6
K5LT_THIN
  62
     7
  10
-5.0000000000
  20
0.6582599878
  30
0.0000000000
  11
-4.5000000000
  21
-0.0000000000
  31
0.0000000000
  0
LINE
  5
2d
100
AcDbEntity
  8
Системный_слой
100
AcDbLine
  6
K5LT_THIN
  62
     7
  10
-4.5000000000
  20
0.0000000000
  30
0.0000000000
  11
-5.0000000000
  21
-0.6582599878
  31
0.0000000000
  0
LINE
  5
2e
100
AcDbEntity
  8
Системный_слой
100
AcDbLine
  6
K5LT_THIN
  62
     7
  10
-5.0000000000
  20
-0.6582599878
  30
0.0000000000
  11
-0.0000000000
  21
-0.0000000000
  31
0.0000000000
  0
LINE
  5
2f
100
AcDbEntity
  8
Системный_слой
100
AcDbLine
  6
K5LT_THIN
  62
     7
  10
0.0000000000
  20
0.0000000000
  30
0.0000000000
  11
-7.0000000000
  21
0.0000000000
  31
0.0000000000
  0
SOLID
  5
30
100
AcDbEntity
  8
Системный_слой
100
AcDbTrace
  10
0.0000000000
  20
0.0000000000
  30
0.0000000000
  11
-5.0000000000
  21
0.6582599878
  31
0.0000000000
  12
-4.5000000000
  22
-0.0000000000
  32
0.0000000000
  13
0.0000000000
  23
0.0000000000
  33
0.0000000000
  0
SOLID
  5
31
100
AcDbEntity
  8
Системный_слой
100
AcDbTrace
  10
-5.0000000000
  20
-0.6582599878
  30
0.0000000000
  11
-0.0000000000
  21
-0.0000000000
  31
0.0000000000
  12
-4.5000000000
  22
0.0000000000
  32
0.0000000000
  13
-5.0000000000
  23
-0.6582599878
  33
0.0000000000
  0
ENDBLK
  5
32
100
AcDbEntity
  8
Системный_слой
100
AcDbBlockEnd
  0
BLOCK
  5
33
100
AcDbEntity
  8
Системный_слой
100
AcDbBlockBegin
  2
K5_DOT
  70
     0
  10
0.0000000000
  20
0.0000000000
  30
0.0000000000
  0
CIRCLE
  5
35
100
AcDbEntity
  8
Системный_слой
100
AcDbCircle
  6
K5LT_THIN
  62
     7
  10
0.0000000000
  20
0.0000000000
  30
0.0000000000
  40
2.0000000000
  0
ENDBLK
  5
36
100
AcDbEntity
  8
Системный_слой
100
AcDbBlockEnd
  0
BLOCK
  5
37
100
AcDbEntity
  8
Системный_слой
100
AcDbBlockBegin
  2
K5_OBLIQUE
  70
     0
  10
0.0000000000
  20
0.0000000000
  30
0.0000000000
  0
LINE
  5
39
100
AcDbEntity
  8
Системный_слой
100
AcDbLine
  6
K5LT_THIN
  62
     7
  10
1.0605000257
  20
1.0605000257
  30
0.0000000000
  11
-1.0605000257
  21
-1.0605000257
  31
0.0000000000
  0
LINE
  5
3a
100
AcDbEntity
  8
Системный_слой
100
AcDbLine
  6
K5LT_THIN
  62
     7
  10
0.0000000000
  20
0.0000000000
  30
0.0000000000
  11
-2.0000000000
  21
0.0000000000
  31
0.0000000000
  0
ENDBLK
  5
3b
100
AcDbEntity
  8
Системный_слой
100
AcDbBlockEnd
  0
BLOCK
  5
ad
100
AcDbEntity
  8
Системный_слой
100
AcDbBlockBegin
  2
*U0
  70
     1
  10
0.0000000000
  20
0.0000000000
  30
0.0000000000
  0
LINE
  5
af
100
AcDbEntity
  8
Системный_слой
100
AcDbLine
  6
K5LT_BASIC
  62
     5
  10
-497.6072401508
  20
31.3323781440
  30
0.0000000000
  11
-227.6072401508
  21
31.3323781440
  31
0.0000000000
  0
LINE
  5
b0
100
AcDbEntity
  8
Системный_слой
100
AcDbLine
  6
K5LT_BASIC
  62
     5
  10
-227.6072401508
  20
31.3323781440
  30
0.0000000000
  11
-227.6072401508
  21
116.3323781440
  31
0.0000000000
  0
LINE
  5
b1
100
AcDbEntity
  8
Системный_слой
100
AcDbLine
  6
K5LT_BASIC
  62
     5
  10
-227.6072401508
  20
116.3323781440
  30
0.0000000000
  11
-497.6072401508
  21
116.3323781440
  31
0.0000000000
  0
LINE
  5
b2
100
AcDbEntity
  8
Системный_слой
100
AcDbLine
  6
K5LT_BASIC
  62
     5
  10
-497.6072401508
  20
116.3323781440
  30
0.0000000000
  11
-497.6072401508
  21
31.3323781440
  31
0.0000000000
  0
ENDBLK
  5
b3
100
AcDbEntity
  8
Системный_слой
100
AcDbBlockEnd
  0
BLOCK
  5
e8
100
AcDbEntity
  8
Системный_слой
100
AcDbBlockBegin
  2
*U1
  70
     1
  10
0.0000000000
  20
0.0000000000
  30
0.0000000000
  0
LINE
  5
ea
100
AcDbEntity
  8
Системный_слой
100
AcDbLine
  6
K5LT_BASIC
  62
     5
  10
-315.5135127892
  20
128.0078770920
  30
0.0000000000
  11
-286.4002914398
  21
128.0078770920
  31
0.0000000000
  0
ENDBLK
  5
eb
100
AcDbEntity
  8
Системный_слой
100
AcDbBlockEnd
  0
BLOCK
  5
ed
100
AcDbEntity
  8
Системный_слой
100
AcDbBlockBegin
  2
*U2
  70
     1
  10
0.0000000000
  20
0.0000000000
  30
0.0000000000
  0
LINE
  5
ef
100
AcDbEntity
  8
Системный_слой
100
AcDbLine
  6
K5LT_BASIC
  62
     5
  10
-286.4002914398
  20
128.0078770920
  30
0.0000000000
  11
-260.0147522251
  21
140.3116560924
  31
0.0000000000
  0
ENDBLK
  5
f0
100
AcDbEntity
  8
Системный_слой
100
AcDbBlockEnd
  0
BLOCK
  5
10d
100
AcDbEntity
  8
Системный_слой
100
AcDbBlockBegin
  2
*X0
  70
     1
  10
0.0000000000
  20
0.0000000000
  30
0.0000000000
  0
ARC
  5
10f
100
AcDbEntity
  8
Системный_слой
100
AcDbCircle
  6
K5LT_THIN
  62
     7
  10
-497.6072401508
  20
80.3323781440
  30
0.0000000000
  40
5.0000000000
  100
AcDbArc
  50
36.8698976458
  51
90.0000000000
  0
ARC
  5
110
100
AcDbEntity
  8
Системный_слой
100
AcDbCircle
  6
K5LT_THIN
  62
     7
  10
-497.6072401508
  20
80.3323781440
  30
0.0000000000
  40
10.0000000000
  100
AcDbArc
  50
17.4576031237
  51
53.1301023542
  0
ARC
  5
111
100
AcDbEntity
  8
Системный_слой
100
AcDbCircle
  6
K5LT_THIN
  62
     7
  10
-497.6072401508
  20
80.3323781440
  30
0.0000000000
  40
15.0000000000
  100
AcDbArc
  50
11.5369590328
  51
32.2309526355
  0
ARC
  5
112
100
AcDbEntity
  8
Системный_слой
100
AcDbCircle
  6
K5LT_THIN
  62
     7
  10
-497.6072401508
  20
80.3323781440
  30
0.0000000000
  40
20.0000000000
  100
AcDbArc
  50
8.6269265587
  51
23.5781784782
  0
ARC
  5
113
100
AcDbEntity
  8
Системный_слой
100
AcDbCircle
  6
K5LT_THIN
  62
     7
  10
-497.6072401508
  20
80.3323781440
  30
0.0000000000
  40
25.0000000000
  100
AcDbArc
  50
6.8921025793
  51
18.6629248849
  0
ARC
  5
114
100
AcDbEntity
  8
Системный_слой
100
AcDbCircle
  6
K5LT_THIN
  62
     7
  10
-497.6072401508
  20
80.3323781440
  30
0.0000000000
  40
30.0000000000
  100
AcDbArc
  50
5.7391704773
  51
15.4660099534
  0
ARC
  5
115
100
AcDbEntity
  8
Системный_слой
100
AcDbCircle
  6
K5LT_THIN
  62
     7
  10
-497.6072401508
  20
80.3323781440
  30
0.0000000000
  40
35.0000000000
  100
AcDbArc
  50
4.9171003355
  51
13.2129803602
  0
ARC
  5
116
100
AcDbEntity
  8
Системный_слой
100
AcDbCircle
  6
K5LT_THIN
  62
     7
  10
-497.6072401508
  20
80.3323781440
  30
0.0000000000
  40
40.0000000000
  100
AcDbArc
  50
4.3012223047
  51
11.5369590328
  0
ARC
  5
117
100
AcDbEntity
  8
Системный_слой
100
AcDbCircle
  6
K5LT_THIN
  62
     7
  10
-497.6072401508
  20
80.3323781440
  30
0.0000000000
  40
45.0000000000
  100
AcDbArc
  50
3.8225537293
  51
10.2403483212
  0
ARC
  5
118
100
AcDbEntity
  8
Системный_слой
100
AcDbCircle
  6
K5LT_THIN
  62
     7
  10
-497.6072401508
  20
80.3323781440
  30
0.0000000000
  40
50.0000000000
  100
AcDbArc
  50
3.4398127675
  51
9.2068962213
  0
ARC
  5
119
100
AcDbEntity
  8
Системный_слой
100
AcDbCircle
  6
K5LT_THIN
  62
     7
  10
-497.6072401508
  20
80.3323781440
  30
0.0000000000
  40
55.0000000000
  100
AcDbArc
  50
3.1267761136
  51
8.3636017890
  0
ARC
  5
11a
100
AcDbEntity
  8
Системный_слой
100
AcDbCircle
  6
K5LT_THIN
  62
     7
  10
-497.6072401508
  20
80.3323781440
  30
0.0000000000
  40
60.0000000000
  100
AcDbArc
  50
2.8659839826
  51
7.6622556608
  0
ARC
  5
11b
100
AcDbEntity
  8
Системный_слой
100
AcDbCircle
  6
K5LT_THIN
  62
     7
  10
-497.6072401508
  20
80.3323781440
  30
0.0000000000
  40
65.0000000000
  100
AcDbArc
  50
2.6453603416
  51
7.0697140423
  0
ARC
  5
11c
100
AcDbEntity
  8
Системный_слой
100
AcDbCircle
  6
K5LT_THIN
  62
     7
  10
-497.6072401508
  20
80.3323781440
  30
0.0000000000
  40
70.0000000000
  100
AcDbArc
  50
2.4562857236
  51
6.5624278686
  0
ARC
  5
11d
100
AcDbEntity
  8
Системный_слой
100
AcDbCircle
  6
K5LT_THIN
  62
     7
  10
-497.6072401508
  20
80.3323781440
  30
0.0000000000
  40
75.0000000000
  100
AcDbArc
  50
2.2924427760
  51
6.1231988663
  0
ARC
  5
11e
100
AcDbEntity
  8
Системный_слой
100
AcDbCircle
  6
K5LT_THIN
  62
     7
  10
-497.6072401508
  20
80.3323781440
  30
0.0000000000
  40
80.0000000000
  100
AcDbArc
  50
2.1490956269
  51
5.7391704773
  0
ARC
  5
11f
100
AcDbEntity
  8
Системный_слой
100
AcDbCircle
  6
K5LT_THIN
  62
     7
  10
-497.6072401508
  20
80.3323781440
  30
0.0000000000
  40
85.0000000000
  100
AcDbArc
  50
2.0226240531
  51
5.4005371681
  0
ARC
  5
120
100
AcDbEntity
  8
Системный_слой
100
AcDbCircle
  6
K5LT_THIN
  62
     7
  10
-497.6072401508
  20
80.3323781440
  30
0.0000000000
  40
90.0000000000
  100
AcDbArc
  50
1.9102131717
  51
5.0996889142
  0
ARC
  5
121
100
AcDbEntity
  8
Системный_слой
100
AcDbCircle
  6
K5LT_THIN
  62
     7
  10
-497.6072401508
  20
80.3323781440
  30
0.0000000000
  40
95.0000000000
  100
AcDbArc
  50
1.8096412621
  51
4.8306285920
  0
ARC
  5
122
100
AcDbEntity
  8
Системный_слой
100
AcDbCircle
  6
K5LT_THIN
  62
     7
  10
-497.6072401508
  20
80.3323781440
  30
0.0000000000
  40
100.0000000000
  100
AcDbArc
  50
1.7191313209
  51
4.5885657358
  0
ARC
  5
123
100
AcDbEntity
  8
Системный_слой
100
AcDbCircle
  6
K5LT_THIN
  62
     7
  10
-497.6072401508
  20
80.3323781440
  30
0.0000000000
  40
105.0000000000
  100
AcDbArc
  50
1.6372450778
  51
4.3696273051
  0
ARC
  5
124
100
AcDbEntity
  8
Системный_слой
100
AcDbCircle
  6
K5LT_THIN
  62
     7
  10
-497.6072401508
  20
80.3323781440
  30
0.0000000000
  40
110.0000000000
  100
AcDbArc
  50
1.5628059457
  51
4.1706479119
  0
ARC
  5
125
100
AcDbEntity
  8
Системный_слой
100
AcDbCircle
  6
K5LT_THIN
  62
     7
  10
-497.6072401508
  20
80.3323781440
  30
0.0000000000
  40
115.0000000000
  100
AcDbArc
  50
1.4948420890
  51
3.9890151330
  0
ARC
  5
126
100
AcDbEntity
  8
Системный_слой
100
AcDbCircle
  6
K5LT_THIN
  62
     7
  10
-497.6072401508
  20
80.3323781440
  30
0.0000000000
  40
120.0000000000
  100
AcDbArc
  50
1.4325437376
  51
3.8225537293
  0
ARC
  5
127
100
AcDbEntity
  8
Системный_слой
100
AcDbCircle
  6
K5LT_THIN
  62
     7
  10
-497.6072401508
  20
80.3323781440
  30
0.0000000000
  40
125.0000000000
  100
AcDbArc
  50
1.3752307520
  51
3.6694378050
  0
ARC
  5
128
100
AcDbEntity
  8
Системный_слой
100
AcDbCircle
  6
K5LT_THIN
  62
     7
  10
-497.6072401508
  20
80.3323781440
  30
0.0000000000
  40
130.0000000000
  100
AcDbArc
  50
1.3223276805
  51
3.5281233413
  0
ARC
  5
129
100
AcDbEntity
  8
Системный_слой
100
AcDbCircle
  6
K5LT_THIN
  62
     7
  10
-497.6072401508
  20
80.3323781440
  30
0.0000000000
  40
135.0000000000
  100
AcDbArc
  50
1.2733443614
  51
3.3972957924
  0
ARC
  5
12a
100
AcDbEntity
  8
Системный_слой
100
AcDbCircle
  6
K5LT_THIN
  62
     7
  10
-497.6072401508
  20
80.3323781440
  30
0.0000000000
  40
140.0000000000
  100
AcDbArc
  50
1.2278606850
  51
3.2758289598
  0
ARC
  5
12b
100
AcDbEntity
  8
Системный_слой
100
AcDbCircle
  6
K5LT_THIN
  62
     7
  10
-497.6072401508
  20
80.3323781440
  30
0.0000000000
  40
145.0000000000
  100
AcDbArc
  50
1.1855145101
  51
3.1627524092
  0
ARC
  5
12c
100
AcDbEntity
  8
Системный_слой
100
AcDbCircle
  6
K5LT_THIN
  62
     7
  10
-497.6072401508
  20
80.3323781440
  30
0.0000000000
  40
150.0000000000
  100
AcDbArc
  50
1.1459919984
  51
3.0572254285
  0
ARC
  5
12d
100
AcDbEntity
  8
Системный_слой
100
AcDbCircle
  6
K5LT_THIN
  62
     7
  10
-497.6072401508
  20
80.3323781440
  30
0.0000000000
  40
155.0000000000
  100
AcDbArc
  50
1.1090198202
  51
2.9585160438
  0
ARC
  5
12e
100
AcDbEntity
  8
Системный_слой
100
AcDbCircle
  6
K5LT_THIN
  62
     7
  10
-497.6072401508
  20
80.3323781440
  30
0.0000000000
  40
160.0000000000
  100
AcDbArc
  50
1.0743588229
  51
2.8659839826
  0
ARC
  5
12f
100
AcDbEntity
  8
Системный_слой
100
AcDbCircle
  6
K5LT_THIN
  62
     7
  10
-497.6072401508
  20
80.3323781440
  30
0.0000000000
  40
165.0000000000
  100
AcDbArc
  50
1.0417988505
  51
2.7790667439
  0
ARC
  5
130
100
AcDbEntity
  8
Системный_слой
100
AcDbCircle
  6
K5LT_THIN
  62
     7
  10
-497.6072401508
  20
80.3323781440
  30
0.0000000000
  40
170.0000000000
  100
AcDbArc
  50
1.0111544781
  51
2.6972681339
  0
ARC
  5
131
100
AcDbEntity
  8
Системный_слой
100
AcDbCircle
  6
K5LT_THIN
  62
     7
  10
-497.6072401508
  20
80.3323781440
  30
0.0000000000
  40
175.0000000000
  100
AcDbArc
  50
0.9822614779
  51
2.6201487719
  0
ARC
  5
132
100
AcDbEntity
  8
Системный_слой
100
AcDbCircle
  6
K5LT_THIN
  62
     7
  10
-497.6072401508
  20
80.3323781440
  30
0.0000000000
  40
180.0000000000
  100
AcDbArc
  50
0.9549738738
  51
2.5473181826
  0
ARC
  5
133
100
AcDbEntity
  8
Системный_слой
100
AcDbCircle
  6
K5LT_THIN
  62
     7
  10
-497.6072401508
  20
80.3323781440
  30
0.0000000000
  40
185.0000000000
  100
AcDbArc
  50
0.9291614748
  51
2.4784281743
  0
ARC
  5
134
100
AcDbEntity
  8
Системный_слой
100
AcDbCircle
  6
K5LT_THIN
  62
     7
  10
-497.6072401508
  20
80.3323781440
  30
0.0000000000
  40
190.0000000000
  100
AcDbArc
  50
0.9047077972
  51
2.4131672646
  0
ARC
  5
135
100
AcDbEntity
  8
Системный_слой
100
AcDbCircle
  6
K5LT_THIN
  62
     7
  10
-497.6072401508
  20
80.3323781440
  30
0.0000000000
  40
195.0000000000
  100
AcDbArc
  50
0.8815083068
  51
2.3512559651
  0
ARC
  5
136
100
AcDbEntity
  8
Системный_слой
100
AcDbCircle
  6
K5LT_THIN
  62
     7
  10
-497.6072401508
  20
80.3323781440
  30
0.0000000000
  40
200.0000000000
  100
AcDbArc
  50
0.8594689248
  51
2.2924427760
  0
ARC
  5
137
100
AcDbEntity
  8
Системный_слой
100
AcDbCircle
  6
K5LT_THIN
  62
     7
  10
-497.6072401508
  20
80.3323781440
  30
0.0000000000
  40
205.0000000000
  100
AcDbArc
  50
0.8385047527
  51
2.2365007665
  0
ARC
  5
138
100
AcDbEntity
  8
Системный_слой
100
AcDbCircle
  6
K5LT_THIN
  62
     7
  10
-497.6072401508
  20
80.3323781440
  30
0.0000000000
  40
210.0000000000
  100
AcDbArc
  50
0.8185389790
  51
2.1832246461
  0
ARC
  5
139
100
AcDbEntity
  8
Системный_слой
100
AcDbCircle
  6
K5LT_THIN
  62
     7
  10
-497.6072401508
  20
80.3323781440
  30
0.0000000000
  40
215.0000000000
  100
AcDbArc
  50
0.7995019385
  51
2.1324282443
  0
ARC
  5
13a
100
AcDbEntity
  8
Системный_слой
100
AcDbCircle
  6
K5LT_THIN
  62
     7
  10
-497.6072401508
  20
80.3323781440
  30
0.0000000000
  40
220.0000000000
  100
AcDbArc
  50
0.7813303003
  51
2.0839423346
  0
ARC
  5
13b
100
AcDbEntity
  8
Системный_слой
100
AcDbCircle
  6
K5LT_THIN
  62
     7
  10
-497.6072401508
  20
80.3323781440
  30
0.0000000000
  40
225.0000000000
  100
AcDbArc
  50
0.7639663640
  51
2.0376127496
  0
ARC
  5
13c
100
AcDbEntity
  8
Системный_слой
100
AcDbCircle
  6
K5LT_THIN
  62
     7
  10
-497.6072401508
  20
80.3323781440
  30
0.0000000000
  40
230.0000000000
  100
AcDbArc
  50
0.7473574472
  51
1.9932987420
  0
ARC
  5
13d
100
AcDbEntity
  8
Системный_слой
100
AcDbCircle
  6
K5LT_THIN
  62
     7
  10
-497.6072401508
  20
80.3323781440
  30
0.0000000000
  40
235.0000000000
  100
AcDbArc
  50
0.7314553516
  51
1.9508715549
  0
ARC
  5
13e
100
AcDbEntity
  8
Системный_слой
100
AcDbCircle
  6
K5LT_THIN
  62
     7
  10
-497.6072401508
  20
80.3323781440
  30
0.0000000000
  40
240.0000000000
  100
AcDbArc
  50
0.0000000000
  51
0.7162158962
  0
ARC
  5
13f
100
AcDbEntity
  8
Системный_слой
100
AcDbCircle
  6
K5LT_THIN
  62
     7
  10
-497.6072401508
  20
80.3323781440
  30
0.0000000000
  40
240.0000000000
  100
AcDbArc
  50
0.7162158962
  51
1.9102131717
  0
ARC
  5
140
100
AcDbEntity
  8
Системный_слой
100
AcDbCircle
  6
K5LT_THIN
  62
     7
  10
-497.6072401508
  20
80.3323781440
  30
0.0000000000
  40
245.0000000000
  100
AcDbArc
  50
0.7015985070
  51
1.8712152188
  0
ARC
  5
141
100
AcDbEntity
  8
Системный_слой
100
AcDbCircle
  6
K5LT_THIN
  62
     7
  10
-497.6072401508
  20
80.3323781440
  30
0.0000000000
  40
245.0000000000
  100
AcDbArc
  50
0.0000000000
  51
0.7015985070
  0
ARC
  5
142
100
AcDbEntity
  8
Системный_слой
100
AcDbCircle
  6
K5LT_THIN
  62
     7
  10
-497.6072401508
  20
80.3323781440
  30
0.0000000000
  40
250.0000000000
  100
AcDbArc
  50
0.0000000000
  51
0.6875658564
  0
ARC
  5
143
100
AcDbEntity
  8
Системный_слой
100
AcDbCircle
  6
K5LT_THIN
  62
     7
  10
-497.6072401508
  20
80.3323781440
  30
0.0000000000
  40
250.0000000000
  100
AcDbArc
  50
0.6875658564
  51
1.8337780000
  0
ARC
  5
144
100
AcDbEntity
  8
Системный_слой
100
AcDbCircle
  6
K5LT_THIN
  62
     7
  10
-497.6072401508
  20
80.3323781440
  30
0.0000000000
  40
255.0000000000
  100
AcDbArc
  50
0.6740835447
  51
1.7978096454
  0
ARC
  5
145
100
AcDbEntity
  8
Системный_слой
100
AcDbCircle
  6
K5LT_THIN
  62
     7
  10
-497.6072401508
  20
80.3323781440
  30
0.0000000000
  40
255.0000000000
  100
AcDbArc
  50
0.0000000000
  51
0.6740835447
  0
ARC
  5
146
100
AcDbEntity
  8
Системный_слой
100
AcDbCircle
  6
K5LT_THIN
  62
     7
  10
-497.6072401508
  20
80.3323781440
  30
0.0000000000
  40
260.0000000000
  100
AcDbArc
  50
0.0000000000
  51
0.6611198186
  0
ARC
  5
147
100
AcDbEntity
  8
Системный_слой
100
AcDbCircle
  6
K5LT_THIN
  62
     7
  10
-497.6072401508
  20
80.3323781440
  30
0.0000000000
  40
260.0000000000
  100
AcDbArc
  50
0.6611198186
  51
1.7632253576
  0
ARC
  5
148
100
AcDbEntity
  8
Системный_слой
100
AcDbCircle
  6
K5LT_THIN
  62
     7
  10
-497.6072401508
  20
80.3323781440
  30
0.0000000000
  40
265.0000000000
  100
AcDbArc
  50
0.6486453217
  51
1.7299467440
  0
ARC
  5
149
100
AcDbEntity
  8
Системный_слой
100
AcDbCircle
  6
K5LT_THIN
  62
     7
  10
-497.6072401508
  20
80.3323781440
  30
0.0000000000
  40
265.0000000000
  100
AcDbArc
  50
0.0000000000
  51
0.6486453217
  0
ARC
  5
14a
100
AcDbEntity
  8
Системный_слой
100
AcDbCircle
  6
K5LT_THIN
  62
     7
  10
-497.6072401508
  20
80.3323781440
  30
0.0000000000
  40
270.0000000000
  100
AcDbArc
  50
0.0000000000
  51
0.6366328723
  0
ARC
  5
14b
100
AcDbEntity
  8
Системный_слой
100
AcDbCircle
  6
K5LT_THIN
  62
     7
  10
-497.6072401508
  20
80.3323781440
  30
0.0000000000
  40
270.0000000000
  100
AcDbArc
  50
0.6366328723
  51
1.6979012236
  0
ARC
  5
14c
100
AcDbEntity
  8
Системный_слой
100
AcDbCircle
  6
K5LT_THIN
  62
     7
  10
-497.6072401508
  20
80.3323781440
  30
0.0000000000
  40
275.0000000000
  100
AcDbArc
  50
0.0000000000
  51
0.6250572657
  0
ARC
  5
14d
100
AcDbEntity
  8
Системный_слой
100
AcDbCircle
  6
K5LT_THIN
  62
     7
  10
-497.6072401508
  20
80.3323781440
  30
0.0000000000
  40
280.0000000000
  100
AcDbArc
  50
0.0000000000
  51
0.6138950977
  0
ARC
  5
14e
100
AcDbEntity
  8
Системный_слой
100
AcDbCircle
  6
K5LT_THIN
  62
     7
  10
-497.6072401508
  20
80.3323781440
  30
0.0000000000
  40
285.0000000000
  100
AcDbArc
  50
0.0000000000
  51
0.6031246069
  0
ARC
  5
14f
100
AcDbEntity
  8
Системный_слой
100
AcDbCircle
  6
K5LT_THIN
  62
     7
  10
-497.6072401508
  20
80.3323781440
  30
0.0000000000
  40
290.0000000000
  100
AcDbArc
  50
0.0000000000
  51
0.5927255326
  0
ARC
  5
150
100
AcDbEntity
  8
Системный_слой
100
AcDbCircle
  6
K5LT_THIN
  62
     7
  10
-497.6072401508
  20
80.3323781440
  30
0.0000000000
  40
295.0000000000
  100
AcDbArc
  50
0.0000000000
  51
0.5826789878
  0
ARC
  5
151
100
AcDbEntity
  8
Системный_слой
100
AcDbCircle
  6
K5LT_THIN
  62
     7
  10
-497.6072401508
  20
80.3323781440
  30
0.0000000000
  40
300.0000000000
  100
AcDbArc
  50
0.0000000000
  51
0.5729673449
  0
ENDBLK
  5
152
100
AcDbEntity
  8
Системный_слой
100
AcDbBlockEnd
  0
BLOCK
  5
154
100
AcDbEntity
  8
Системный_слой
100
AcDbBlockBegin
  2
*X1
  70
     1
  10
0.0000000000
  20
0.0000000000
  30
0.0000000000
  0
ARC
  5
156
100
AcDbEntity
  8
Системный_слой
100
AcDbCircle
  6
K5LT_THIN
  62
     7
  10
-497.6741638758
  20
-39.8149493623
  30
0.0000000000
  40
20.0000000000
  100
AcDbArc
  50
72.4722800569
  51
87.6947627216
  0
ARC
  5
157
100
AcDbEntity
  8
Системный_слой
100
AcDbCircle
  6
K5LT_THIN
  62
     7
  10
-497.6741638758
  20
-39.8149493623
  30
0.0000000000
  40
25.0000000000
  100
AcDbArc
  50
47.4841840156
  51
73.9711870116
  0
ARC
  5
158
100
AcDbEntity
  8
Системный_слой
100
AcDbCircle
  6
K5LT_THIN
  62
     7
  10
-497.6741638758
  20
-39.8149493623
  30
0.0000000000
  40
30.0000000000
  100
AcDbArc
  50
36.8855805095
  51
51.0132947980
  0
ARC
  5
159
100
AcDbEntity
  8
Системный_слой
100
AcDbCircle
  6
K5LT_THIN
  62
     7
  10
-497.6741638758
  20
-39.8149493623
  30
0.0000000000
  40
35.0000000000
  100
AcDbArc
  50
30.2594161328
  51
40.7943060314
  0
ARC
  5
15a
100
AcDbEntity
  8
Системный_слой
100
AcDbCircle
  6
K5LT_THIN
  62
     7
  10
-497.6741638758
  20
-39.8149493623
  30
0.0000000000
  40
40.0000000000
  100
AcDbArc
  50
25.6122299492
  51
34.1882944709
  0
ARC
  5
15b
100
AcDbEntity
  8
Системный_слой
100
AcDbCircle
  6
K5LT_THIN
  62
     7
  10
-497.6741638758
  20
-39.8149493623
  30
0.0000000000
  40
45.0000000000
  100
AcDbArc
  50
22.1391434973
  51
29.4354991531
  0
ARC
  5
15c
100
AcDbEntity
  8
Системный_слой
100
AcDbCircle
  6
K5LT_THIN
  62
     7
  10
-497.6741638758
  20
-39.8149493623
  30
0.0000000000
  40
50.0000000000
  100
AcDbArc
  50
19.4321146206
  51
25.8108200869
  0
ARC
  5
15d
100
AcDbEntity
  8
Системный_слой
100
AcDbCircle
  6
K5LT_THIN
  62
     7
  10
-497.6741638758
  20
-39.8149493623
  30
0.0000000000
  40
55.0000000000
  100
AcDbArc
  50
17.2569624527
  51
22.9385913667
  0
ARC
  5
15e
100
AcDbEntity
  8
Системный_слой
100
AcDbCircle
  6
K5LT_THIN
  62
     7
  10
-497.6741638758
  20
-39.8149493623
  30
0.0000000000
  40
60.0000000000
  100
AcDbArc
  50
15.4679681600
  51
20.5987427630
  0
ARC
  5
15f
100
AcDbEntity
  8
Системный_слой
100
AcDbCircle
  6
K5LT_THIN
  62
     7
  10
-497.6741638758
  20
-39.8149493623
  30
0.0000000000
  40
65.0000000000
  100
AcDbArc
  50
13.9690472333
  51
18.6517543912
  0
ARC
  5
160
100
AcDbEntity
  8
Системный_слой
100
AcDbCircle
  6
K5LT_THIN
  62
     7
  10
-497.6741638758
  20
-39.8149493623
  30
0.0000000000
  40
70.0000000000
  100
AcDbArc
  50
12.6939876360
  51
17.0040727397
  0
ARC
  5
161
100
AcDbEntity
  8
Системный_слой
100
AcDbCircle
  6
K5LT_THIN
  62
     7
  10
-497.6741638758
  20
-39.8149493623
  30
0.0000000000
  40
75.0000000000
  100
AcDbArc
  50
11.5955413485
  51
15.5902539229
  0
ARC
  5
162
100
AcDbEntity
  8
Системный_слой
100
AcDbCircle
  6
K5LT_THIN
  62
     7
  10
-497.6741638758
  20
-39.8149493623
  30
0.0000000000
  40
80.0000000000
  100
AcDbArc
  50
10.6390188865
  51
14.3629647606
  0
ARC
  5
163
100
AcDbEntity
  8
Системный_слой
100
AcDbCircle
  6
K5LT_THIN
  62
     7
  10
-497.6741638758
  20
-39.8149493623
  30
0.0000000000
  40
85.0000000000
  100
AcDbArc
  50
9.7983390239
  51
13.2870298347
  0
ARC
  5
164
100
AcDbEntity
  8
Системный_слой
100
AcDbCircle
  6
K5LT_THIN
  62
     7
  10
-497.6741638758
  20
-39.8149493623
  30
0.0000000000
  40
90.0000000000
  100
AcDbArc
  50
9.0534931930
  51
12.3357120028
  0
ARC
  5
165
100
AcDbEntity
  8
Системный_слой
100
AcDbCircle
  6
K5LT_THIN
  62
     7
  10
-497.6741638758
  20
-39.8149493623
  30
0.0000000000
  40
95.0000000000
  100
AcDbArc
  50
8.3888626510
  51
11.4882954682
  0
ARC
  5
166
100
AcDbEntity
  8
Системный_слой
100
AcDbCircle
  6
K5LT_THIN
  62
     7
  10
-497.6741638758
  20
-39.8149493623
  30
0.0000000000
  40
100.0000000000
  100
AcDbArc
  50
7.7920694555
  51
10.7284632144
  0
ARC
  5
167
100
AcDbEntity
  8
Системный_слой
100
AcDbCircle
  6
K5LT_THIN
  62
     7
  10
-497.6741638758
  20
-39.8149493623
  30
0.0000000000
  40
105.0000000000
  100
AcDbArc
  50
7.2531724818
  51
10.0431772283
  0
ARC
  5
168
100
AcDbEntity
  8
Системный_слой
100
AcDbCircle
  6
K5LT_THIN
  62
     7
  10
-497.6741638758
  20
-39.8149493623
  30
0.0000000000
  40
110.0000000000
  100
AcDbArc
  50
6.7640927313
  51
9.4218871460
  0
ARC
  5
169
100
AcDbEntity
  8
Системный_слой
100
AcDbCircle
  6
K5LT_THIN
  62
     7
  10
-497.6741638758
  20
-39.8149493623
  30
0.0000000000
  40
115.0000000000
  100
AcDbArc
  50
6.3181947353
  51
8.8559593168
  0
ARC
  5
16a
100
AcDbEntity
  8
Системный_слой
100
AcDbCircle
  6
K5LT_THIN
  62
     7
  10
-497.6741638758
  20
-39.8149493623
  30
0.0000000000
  40
120.0000000000
  100
AcDbArc
  50
5.9099765162
  51
8.3382573297
  0
ARC
  5
16b
100
AcDbEntity
  8
Системный_слой
100
AcDbCircle
  6
K5LT_THIN
  62
     7
  10
-497.6741638758
  20
-39.8149493623
  30
0.0000000000
  40
125.0000000000
  100
AcDbArc
  50
5.5348364881
  51
7.8628288067
  0
ARC
  5
16c
100
AcDbEntity
  8
Системный_слой
100
AcDbCircle
  6
K5LT_THIN
  62
     7
  10
-497.6741638758
  20
-39.8149493623
  30
0.0000000000
  40
130.0000000000
  100
AcDbArc
  50
5.1888958240
  51
7.4246681364
  0
ARC
  5
16d
100
AcDbEntity
  8
Системный_слой
100
AcDbCircle
  6
K5LT_THIN
  62
     7
  10
-497.6741638758
  20
-39.8149493623
  30
0.0000000000
  40
135.0000000000
  100
AcDbArc
  50
4.8688614247
  51
7.0195343841
  0
ARC
  5
16e
100
AcDbEntity
  8
Системный_слой
100
AcDbCircle
  6
K5LT_THIN
  62
     7
  10
-497.6741638758
  20
-39.8149493623
  30
0.0000000000
  40
140.0000000000
  100
AcDbArc
  50
4.5719190256
  51
6.6438098869
  0
ARC
  5
16f
100
AcDbEntity
  8
Системный_слой
100
AcDbCircle
  6
K5LT_THIN
  62
     7
  10
-497.6741638758
  20
-39.8149493623
  30
0.0000000000
  40
145.0000000000
  100
AcDbArc
  50
4.2956489578
  51
6.2943892611
  0
ARC
  5
170
100
AcDbEntity
  8
Системный_слой
100
AcDbCircle
  6
K5LT_THIN
  62
     7
  10
-497.6741638758
  20
-39.8149493623
  30
0.0000000000
  40
150.0000000000
  100
AcDbArc
  50
4.0379591389
  51
5.9685914178
  0
ARC
  5
171
100
AcDbEntity
  8
Системный_слой
100
AcDbCircle
  6
K5LT_THIN
  62
     7
  10
-497.6741638758
  20
-39.8149493623
  30
0.0000000000
  40
155.0000000000
  100
AcDbArc
  50
3.7970313050
  51
5.6640891877
  0
ARC
  5
172
100
AcDbEntity
  8
Системный_слой
100
AcDbCircle
  6
K5LT_THIN
  62
     7
  10
-497.6741638758
  20
-39.8149493623
  30
0.0000000000
  40
160.0000000000
  100
AcDbArc
  50
3.5712775233
  51
5.3788525573
  0
ARC
  5
173
100
AcDbEntity
  8
Системный_слой
100
AcDbCircle
  6
K5LT_THIN
  62
     7
  10
-497.6741638758
  20
-39.8149493623
  30
0.0000000000
  40
165.0000000000
  100
AcDbArc
  50
3.3593047556
  51
5.1111025313
  0
ARC
  5
174
100
AcDbEntity
  8
Системный_слой
100
AcDbCircle
  6
K5LT_THIN
  62
     7
  10
-497.6741638758
  20
-39.8149493623
  30
0.0000000000
  40
170.0000000000
  100
AcDbArc
  50
3.1598857837
  51
4.8592733630
  0
ARC
  5
175
100
AcDbEntity
  8
Системный_слой
100
AcDbCircle
  6
K5LT_THIN
  62
     7
  10
-497.6741638758
  20
-39.8149493623
  30
0.0000000000
  40
175.0000000000
  100
AcDbArc
  50
2.9719351989
  51
4.6219814258
  0
ARC
  5
176
100
AcDbEntity
  8
Системный_слой
100
AcDbCircle
  6
K5LT_THIN
  62
     7
  10
-497.6741638758
  20
-39.8149493623
  30
0.0000000000
  40
180.0000000000
  100
AcDbArc
  50
2.7944894548
  51
4.3979994013
  0
ARC
  5
177
100
AcDbEntity
  8
Системный_слой
100
AcDbCircle
  6
K5LT_THIN
  62
     7
  10
-497.6741638758
  20
-39.8149493623
  30
0.0000000000
  40
185.0000000000
  100
AcDbArc
  50
2.6266902003
  51
4.1862347480
  0
ARC
  5
178
100
AcDbEntity
  8
Системный_слой
100
AcDbCircle
  6
K5LT_THIN
  62
     7
  10
-497.6741638758
  20
-39.8149493623
  30
0.0000000000
  40
190.0000000000
  100
AcDbArc
  50
2.4677702805
  51
3.9857116442
  0
ARC
  5
179
100
AcDbEntity
  8
Системный_слой
100
AcDbCircle
  6
K5LT_THIN
  62
     7
  10
-497.6741638758
  20
-39.8149493623
  30
0.0000000000
  40
195.0000000000
  100
AcDbArc
  50
2.3170419188
  51
3.7955557656
  0
ARC
  5
17a
100
AcDbEntity
  8
Системный_слой
100
AcDbCircle
  6
K5LT_THIN
  62
     7
  10
-497.6741638758
  20
-39.8149493623
  30
0.0000000000
  40
200.0000000000
  100
AcDbArc
  50
2.1738866931
  51
3.6149813904
  0
ARC
  5
17b
100
AcDbEntity
  8
Системный_слой
100
AcDbCircle
  6
K5LT_THIN
  62
     7
  10
-497.6741638758
  20
-39.8149493623
  30
0.0000000000
  40
205.0000000000
  100
AcDbArc
  50
2.0377469955
  51
3.4432804270
  0
ARC
  5
17c
100
AcDbEntity
  8
Системный_слой
100
AcDbCircle
  6
K5LT_THIN
  62
     7
  10
-497.6741638758
  20
-39.8149493623
  30
0.0000000000
  40
210.0000000000
  100
AcDbArc
  50
1.9081187260
  51
3.2798130356
  0
ARC
  5
17d
100
AcDbEntity
  8
Системный_слой
100
AcDbCircle
  6
K5LT_THIN
  62
     7
  10
-497.6741638758
  20
-39.8149493623
  30
0.0000000000
  40
215.0000000000
  100
AcDbArc
  50
1.7845450161
  51
3.1239995809
  0
ARC
  5
17e
100
AcDbEntity
  8
Системный_слой
100
AcDbCircle
  6
K5LT_THIN
  62
     7
  10
-497.6741638758
  20
-39.8149493623
  30
0.0000000000
  40
220.0000000000
  100
AcDbArc
  50
1.6666108160
  51
2.9753136991
  0
ARC
  5
17f
100
AcDbEntity
  8
Системный_слой
100
AcDbCircle
  6
K5LT_THIN
  62
     7
  10
-497.6741638758
  20
-39.8149493623
  30
0.0000000000
  40
225.0000000000
  100
AcDbArc
  50
1.5539382118
  51
2.8332763038
  0
ARC
  5
180
100
AcDbEntity
  8
Системный_слой
100
AcDbCircle
  6
K5LT_THIN
  62
     7
  10
-497.6741638758
  20
-39.8149493623
  30
0.0000000000
  40
230.0000000000
  100
AcDbArc
  50
1.4461823576
  51
2.6974503840
  0
ARC
  5
181
100
AcDbEntity
  8
Системный_слой
100
AcDbCircle
  6
K5LT_THIN
  62
     7
  10
-497.6741638758
  20
-39.8149493623
  30
0.0000000000
  40
235.0000000000
  100
AcDbArc
  50
1.3430279319
  51
2.5674364766
  0
ARC
  5
182
100
AcDbEntity
  8
Системный_слой
100
AcDbCircle
  6
K5LT_THIN
  62
     7
  10
-497.6741638758
  20
-39.8149493623
  30
0.0000000000
  40
240.0000000000
  100
AcDbArc
  50
1.2441860414
  51
2.4428687113
  0
ARC
  5
183
100
AcDbEntity
  8
Системный_слой
100
AcDbCircle
  6
K5LT_THIN
  62
     7
  10
-497.6741638758
  20
-39.8149493623
  30
0.0000000000
  40
245.0000000000
  100
AcDbArc
  50
1.1493915052
  51
2.3234113463
  0
ARC
  5
184
100
AcDbEntity
  8
Системный_слой
100
AcDbCircle
  6
K5LT_THIN
  62
     7
  10
-497.6741638758
  20
-39.8149493623
  30
0.0000000000
  40
250.0000000000
  100
AcDbArc
  50
1.0584004692
  51
2.2087557247
  0
ARC
  5
185
100
AcDbEntity
  8
Системный_слой
100
AcDbCircle
  6
K5LT_THIN
  62
     7
  10
-497.6741638758
  20
-39.8149493623
  30
0.0000000000
  40
255.0000000000
  100
AcDbArc
  50
0.9709883019
  51
2.0986175932
  0
ARC
  5
186
100
AcDbEntity
  8
Системный_слой
100
AcDbCircle
  6
K5LT_THIN
  62
     7
  10
-497.6741638758
  20
-39.8149493623
  30
0.0000000000
  40
260.0000000000
  100
AcDbArc
  50
0.8869477353
  51
1.9927347332
  0
ARC
  5
187
100
AcDbEntity
  8
Системный_слой
100
AcDbCircle
  6
K5LT_THIN
  62
     7
  10
-497.6741638758
  20
-39.8149493623
  30
0.0000000000
  40
265.0000000000
  100
AcDbArc
  50
0.8060872175
  51
1.8908648637
  0
ARC
  5
188
100
AcDbEntity
  8
Системный_слой
100
AcDbCircle
  6
K5LT_THIN
  62
     7
  10
-497.6741638758
  20
-39.8149493623
  30
0.0000000000
  40
270.0000000000
  100
AcDbArc
  50
0.7282294496
  51
1.7927837789
  0
ARC
  5
189
100
AcDbEntity
  8
Системный_слой
100
AcDbCircle
  6
K5LT_THIN
  62
     7
  10
-497.6741638758
  20
-39.8149493623
  30
0.0000000000
  40
275.0000000000
  100
AcDbArc
  50
0.6532100829
  51
1.6982836912
  0
ARC
  5
18a
100
AcDbEntity
  8
Системный_слой
100
AcDbCircle
  6
K5LT_THIN
  62
     7
  10
-497.6741638758
  20
-39.8149493623
  30
0.0000000000
  40
280.0000000000
  100
AcDbArc
  50
0.5808765572
  51
1.6071717537
  0
ARC
  5
18b
100
AcDbEntity
  8
Системный_слой
100
AcDbCircle
  6
K5LT_THIN
  62
     7
  10
-497.6741638758
  20
-39.8149493623
  30
0.0000000000
  40
285.0000000000
  100
AcDbArc
  50
0.5110870613
  51
1.5192687392
  0
ARC
  5
18c
100
AcDbEntity
  8
Системный_слой
100
AcDbCircle
  6
K5LT_THIN
  62
     7
  10
-497.6741638758
  20
-39.8149493623
  30
0.0000000000
  40
290.0000000000
  100
AcDbArc
  50
0.4437096022
  51
1.4344078574
  0
ARC
  5
18d
100
AcDbEntity
  8
Системный_слой
100
AcDbCircle
  6
K5LT_THIN
  62
     7
  10
-497.6741638758
  20
-39.8149493623
  30
0.0000000000
  40
295.0000000000
  100
AcDbArc
  50
0.3786211691
  51
1.3524336933
  0
ARC
  5
18e
100
AcDbEntity
  8
Системный_слой
100
AcDbCircle
  6
K5LT_THIN
  62
     7
  10
-497.6741638758
  20
-39.8149493623
  30
0.0000000000
  40
300.0000000000
  100
AcDbArc
  50
0.3157069819
  51
1.2732012525
  0
ARC
  5
18f
100
AcDbEntity
  8
Системный_слой
100
AcDbCircle
  6
K5LT_THIN
  62
     7
  10
-497.6741638758
  20
-39.8149493623
  30
0.0000000000
  40
305.0000000000
  100
AcDbArc
  50
0.2548598131
  51
1.1965751016
  0
ARC
  5
190
100
AcDbEntity
  8
Системный_слой
100
AcDbCircle
  6
K5LT_THIN
  62
     7
  10
-497.6741638758
  20
-39.8149493623
  30
0.0000000000
  40
310.0000000000
  100
AcDbArc
  50
0.1959793769
  51
1.1224285916
  0
ARC
  5
191
100
AcDbEntity
  8
Системный_слой
100
AcDbCircle
  6
K5LT_THIN
  62
     7
  10
-497.6741638758
  20
-39.8149493623
  30
0.0000000000
  40
315.0000000000
  100
AcDbArc
  50
0.1389717756
  51
1.0506431570
  0
ARC
  5
192
100
AcDbEntity
  8
Системный_слой
100
AcDbCircle
  6
K5LT_THIN
  62
     7
  10
-497.6741638758
  20
-39.8149493623
  30
0.0000000000
  40
320.0000000000
  100
AcDbArc
  50
0.0837489987
  51
0.9811076797
  0
ARC
  5
193
100
AcDbEntity
  8
Системный_слой
100
AcDbCircle
  6
K5LT_THIN
  62
     7
  10
-497.6741638758
  20
-39.8149493623
  30
0.0000000000
  40
325.0000000000
  100
AcDbArc
  50
0.0302284687
  51
0.9137179133
  0
ENDBLK
  5
194
100
AcDbEntity
  8
Системный_слой
100
AcDbBlockEnd
  0
BLOCK
  5
196
100
AcDbEntity
  8
Системный_слой
100
AcDbBlockBegin
  2
*X2
  70
     1
  10
0.0000000000
  20
0.0000000000
  30
0.0000000000
  0
ARC
  5
198
100
AcDbEntity
  8
Системный_слой
100
AcDbCircle
  6
K5LT_THIN
  62
     7
  10
-509.1625756404
  20
83.3325987017
  30
0.0000000000
  40
1.5000000000
  100
AcDbArc
  50
0.4202690147
  51
87.7155798906
  0
ARC
  5
199
100
AcDbEntity
  8
Системный_слой
100
AcDbCircle
  6
K5LT_THIN
  62
     7
  10
-509.1625756404
  20
83.3325987017
  30
0.0000000000
  40
3.0000000000
  100
AcDbArc
  50
0.0881959959
  51
89.3450763668
  0
ARC
  5
19a
100
AcDbEntity
  8
Системный_слой
100
AcDbCircle
  6
K5LT_THIN
  62
     7
  10
-509.1625756404
  20
83.3325987017
  30
0.0000000000
  40
4.5000000000
  100
AcDbArc
  50
24.6163639042
  51
89.8878841403
  0
ARC
  5
19b
100
AcDbEntity
  8
Системный_слой
100
AcDbCircle
  6
K5LT_THIN
  62
     7
  10
-509.1625756404
  20
83.3325987017
  30
0.0000000000
  40
6.0000000000
  100
AcDbArc
  50
46.9065950347
  51
56.5038997898
  0
ENDBLK
  5
19c
100
AcDbEntity
  8
Системный_слой
100
AcDbBlockEnd
  0
ENDSEC
  0
SECTION
  2
ENTITIES
  0
LINE
  5
3d
100
AcDbEntity
  8
Системный_слой
100
AcDbLine
  6
K5LT_BASIC
  62
     5
  10
-195.2039347958
  20
-38.3085553803
  30
0.0000000000
  11
-195.4284263168
  21
-42.3022508566
  31
0.0000000000
  0
LINE
  5
3f
100
AcDbEntity
  8
Системный_слой
100
AcDbLine
  6
K5LT_BASIC
  62
     5
  10
-272.6576741405
  20
-37.7262732903
  30
0.0000000000
  11
-208.4395753498
  21
-56.9096341795
  31
0.0000000000
  0
POLYLINE
  5
40
100
AcDbEntity
  8
Системный_слой
100
AcDb2dPolyline
  6
K5LT_BASIC
  62
     5
  66
     1
  10
0.0000000000
  20
0.0000000000
  30
0.0000000000
  0
VERTEX
  5
41
100
AcDbEntity
  8
Системный_слой
100
AcDbVertex
  100
AcDb2dVertex
  10
-208.4395753498
  20
-56.9096341795
  30
0.0000000000
  42
0.0000000000
  0
VERTEX
  5
42
100
AcDbEntity
  8
Системный_слой
100
AcDbVertex
  100
AcDb2dVertex
  10
-201.2132209792
  20
-64.7864346780
  30
0.0000000000
  42
0.0000000000
  0
VERTEX
  5
43
100
AcDbEntity
  8
Системный_слой
100
AcDbVertex
  100
AcDb2dVertex
  10
-193.0517229128
  20
-71.3648824802
  30
0.0000000000
  42
0.0000000000
  0
VERTEX
  5
44
100
AcDbEntity
  8
Системный_слой
100
AcDbVertex
  100
AcDb2dVertex
  10
-192.3097757114
  20
-71.8675877227
  30
0.0000000000
  42
0.0000000000
  0
VERTEX
  5
45
100
AcDbEntity
  8
Системный_слой
100
AcDbVertex
  100
AcDb2dVertex
  10
-183.4070177506
  20
-77.0642278386
  30
0.0000000000
  42
0.0000000000
  0
VERTEX
  5
46
100
AcDbEntity
  8
Системный_слой
100
AcDbVertex
  100
AcDb2dVertex
  10
-181.5088471410
  20
-77.7719876466
  30
0.0000000000
  42
0.0000000000
  0
VERTEX
  5
47
100
AcDbEntity
  8
Системный_слой
100
AcDbVertex
  100
AcDb2dVertex
  10
-175.0128928496
  20
-79.0968258904
  30
0.0000000000
  42
0.0000000000
  0
VERTEX
  5
48
100
AcDbEntity
  8
Системный_слой
100
AcDbVertex
  100
AcDb2dVertex
  10
-167.5454765729
  20
-79.0825519599
  30
0.0000000000
  42
0.0000000000
  0
VERTEX
  5
49
100
AcDbEntity
  8
Системный_слой
100
AcDbVertex
  100
AcDb2dVertex
  10
-160.7115989181
  20
-77.6220861098
  30
0.0000000000
  42
0.0000000000
  0
VERTEX
  5
4a
100
AcDbEntity
  8
Системный_слой
100
AcDbVertex
  100
AcDb2dVertex
  10
-155.9564048806
  20
-75.7531883041
  30
0.0000000000
  42
0.0000000000
  0
VERTEX
  5
4b
100
AcDbEntity
  8
Системный_слой
100
AcDbVertex
  100
AcDb2dVertex
  10
-150.8019813637
  20
-72.5554373490
  30
0.0000000000
  42
0.0000000000
  0
VERTEX
  5
4c
100
AcDbEntity
  8
Системный_слой
100
AcDbVertex
  100
AcDb2dVertex
  10
-144.6252270139
  20
-67.3792903439
  30
0.0000000000
  42
0.0000000000
  0
VERTEX
  5
4d
100
AcDbEntity
  8
Системный_слой
100
AcDbVertex
  100
AcDb2dVertex
  10
-141.0681911890
  20
-63.6420514035
  30
0.0000000000
  42
0.0000000000
  0
VERTEX
  5
4e
100
AcDbEntity
  8
Системный_слой
100
AcDbVertex
  100
AcDb2dVertex
  10
-137.0353977663
  20
-59.8489869139
  30
0.0000000000
  42
0.0000000000
  0
VERTEX
  5
4f
100
AcDbEntity
  8
Системный_слой
100
AcDbVertex
  100
AcDb2dVertex
  10
-133.0762601873
  20
-58.0724159534
  30
0.0000000000
  42
0.0000000000
  0
VERTEX
  5
50
100
AcDbEntity
  8
Системный_слой
100
AcDbVertex
  100
AcDb2dVertex
  10
-127.7620322727
  20
-57.2628996687
  30
0.0000000000
  42
0.0000000000
  0
VERTEX
  5
51
100
AcDbEntity
  8
Системный_слой
100
AcDbVertex
  100
AcDb2dVertex
  10
-118.6751215355
  20
-57.2185267481
  30
0.0000000000
  42
0.0000000000
  0
VERTEX
  5
52
100
AcDbEntity
  8
Системный_слой
100
AcDbVertex
  100
AcDb2dVertex
  10
-112.2164784437
  20
-56.7491081942
  30
0.0000000000
  42
0.0000000000
  0
VERTEX
  5
53
100
AcDbEntity
  8
Системный_слой
100
AcDbVertex
  100
AcDb2dVertex
  10
-100.1673465296
  20
-54.8850086231
  30
0.0000000000
  42
0.0000000000
  0
VERTEX
  5
54
100
AcDbEntity
  8
Системный_слой
100
AcDbVertex
  100
AcDb2dVertex
  10
-93.4595477733
  20
-52.7717300627
  30
0.0000000000
  42
0.0000000000
  0
VERTEX
  5
55
100
AcDbEntity
  8
Системный_слой
100
AcDbVertex
  100
AcDb2dVertex
  10
-91.4015266474
  20
-51.7766833492
  30
0.0000000000
  0
SEQEND
  5
56
100
AcDbEntity
  8
Системный_слой
  0
LINE
  5
57
100
AcDbEntity
  8
Системный_слой
100
AcDbLine
  6
K5LT_BASIC
  62
     5
  10
-152.5262944767
  20
4.3426430625
  30
0.0000000000
  11
-139.9119458584
  21
-6.9664684885
  31
0.0000000000
  0
LINE
  5
58
100
AcDbEntity
  8
Системный_слой
100
AcDbLine
  6
K5LT_BASIC
  62
     5
  10
-139.9119458584
  20
-6.9664684885
  30
0.0000000000
  11
-195.7252842921
  21
-5.1541233522
  31
0.0000000000
  0
LINE
  5
59
100
AcDbEntity
  8
Системный_слой
100
AcDbLine
  6
K5LT_BASIC
  62
     5
  10
-195.7252842921
  20
-5.1541233522
  30
0.0000000000
  11
-478.1623185851
  21
-6.9134182310
  31
0.0000000000
  0
LINE
  5
5a
100
AcDbEntity
  8
Системный_слой
100
AcDbLine
  6
K5LT_BASIC
  62
     5
  10
-1.6940681217
  20
-47.4416321622
  30
0.0000000000
  11
50.7564401527
  21
-39.3992208935
  31
0.0000000000
  0
LINE
  5
5b
100
AcDbEntity
  8
Системный_слой
100
AcDbLine
  6
K5LT_BASIC
  62
     5
  10
57.8636788673
  20
-34.5789618937
  30
0.0000000000
  11
80.0741119519
  21
3.2388025477
  31
0.0000000000
  0
LINE
  5
5c
100
AcDbEntity
  8
Системный_слой
100
AcDbLine
  6
K5LT_BASIC
  62
     5
  10
76.5892556477
  20
9.2643305368
  30
0.0000000000
  11
-2.3417112641
  21
8.5981797546
  31
0.0000000000
  0
LINE
  5
5d
100
AcDbEntity
  8
Системный_слой
100
AcDbLine
  6
K5LT_BASIC
  62
     5
  10
-107.0329504298
  20
140.5276930819
  30
0.0000000000
  11
-103.0326601224
  21
140.5276930819
  31
0.0000000000
  0
LINE
  5
5e
100
AcDbEntity
  8
Системный_слой
100
AcDbLine
  6
K5LT_BASIC
  62
     5
  10
-103.0326601224
  20
140.5276930819
  30
0.0000000000
  11
-103.4136601527
  21
108.9046905687
  31
0.0000000000
  0
POLYLINE
  5
5f
100
AcDbEntity
  8
Системный_слой
100
AcDb2dPolyline
  6
K5LT_BASIC
  62
     5
  66
     1
  10
0.0000000000
  20
0.0000000000
  30
0.0000000000
  0
VERTEX
  5
60
100
AcDbEntity
  8
Системный_слой
100
AcDbVertex
  100
AcDb2dVertex
  10
-103.4136601527
  20
108.9046905687
  30
0.0000000000
  42
0.0000000000
  0
VERTEX
  5
61
100
AcDbEntity
  8
Системный_слой
100
AcDbVertex
  100
AcDb2dVertex
  10
-116.7349054381
  20
111.6945610917
  30
0.0000000000
  42
0.0000000000
  0
VERTEX
  5
62
100
AcDbEntity
  8
Системный_слой
100
AcDbVertex
  100
AcDb2dVertex
  10
-129.3844885423
  20
115.9367111489
  30
0.0000000000
  42
0.0000000000
  0
VERTEX
  5
63
100
AcDbEntity
  8
Системный_слой
100
AcDbVertex
  100
AcDb2dVertex
  10
-134.3041007872
  20
118.0622645585
  30
0.0000000000
  42
0.0000000000
  0
VERTEX
  5
64
100
AcDbEntity
  8
Системный_слой
100
AcDbVertex
  100
AcDb2dVertex
  10
-146.7203012942
  20
124.6656374283
  30
0.0000000000
  42
0.0000000000
  0
VERTEX
  5
65
100
AcDbEntity
  8
Системный_слой
100
AcDbVertex
  100
AcDb2dVertex
  10
-157.4921484850
  20
132.2605549171
  30
0.0000000000
  42
0.0000000000
  0
VERTEX
  5
66
100
AcDbEntity
  8
Системный_слой
100
AcDbVertex
  100
AcDb2dVertex
  10
-161.7239999912
  20
135.9720343057
  30
0.0000000000
  42
0.0000000000
  0
VERTEX
  5
67
100
AcDbEntity
  8
Системный_слой
100
AcDbVertex
  100
AcDb2dVertex
  10
-171.1610422536
  20
145.7171423852
  30
0.0000000000
  42
0.0000000000
  0
VERTEX
  5
68
100
AcDbEntity
  8
Системный_слой
100
AcDbVertex
  100
AcDb2dVertex
  10
-176.4914735121
  20
153.6781765379
  30
0.0000000000
  42
0.0000000000
  0
VERTEX
  5
69
100
AcDbEntity
  8
Системный_слой
100
AcDbVertex
  100
AcDb2dVertex
  10
-176.9513575752
  20
154.6348952399
  30
0.0000000000
  42
0.0000000000
  0
VERTEX
  5
6a
100
AcDbEntity
  8
Системный_слой
100
AcDbVertex
  100
AcDb2dVertex
  10
-179.8226252256
  20
162.7934287385
  30
0.0000000000
  42
0.0000000000
  0
VERTEX
  5
6b
100
AcDbEntity
  8
Системный_слой
100
AcDbVertex
  100
AcDb2dVertex
  10
-180.4194879338
  20
165.4499922880
  30
0.0000000000
  0
SEQEND
  5
6c
100
AcDbEntity
  8
Системный_слой
  0
LINE
  5
6d
100
AcDbEntity
  8
Системный_слой
100
AcDbLine
  6
K5LT_BASIC
  62
     5
  10
-176.4745310763
  20
170.2221442555
  30
0.0000000000
  11
-106.6794329517
  21
169.8696437599
  31
0.0000000000
  0
LINE
  5
6e
100
AcDbEntity
  8
Системный_слой
100
AcDbLine
  6
K5LT_BASIC
  62
     5
  10
-478.1623185851
  20
-6.9134182310
  30
0.0000000000
  11
-497.6741638758
  21
-20.3866278499
  31
0.0000000000
  0
LINE
  5
6f
100
AcDbEntity
  8
Системный_слой
100
AcDbLine
  6
K5LT_AXLED
  62
     30
  10
-1.6058893415
  20
-53.4352414366
  30
0.0000000000
  11
-2.3678894021
  21
17.4307641953
  31
0.0000000000
  0
LINE
  5
71
100
AcDbEntity
  8
Системный_слой
100
AcDbLine
  6
K5LT_BASIC
  62
     5
  10
-195.2039347958
  20
-38.3085553803
  30
0.0000000000
  11
-497.6741638758
  21
-20.3866278499
  31
0.0000000000
  0
LINE
  5
72
100
AcDbEntity
  8
Системный_слой
100
AcDbLine
  6
K5LT_BASIC
  62
     5
  10
-195.4284263168
  20
-42.3022508566
  30
0.0000000000
  11
-272.6576741405
  21
-37.7262732903
  31
0.0000000000
  0
ARC
  5
73
100
AcDbEntity
  8
Системный_слой
100
AcDbCircle
  6
K5LT_BASIC
  62
     5
  10
49.2408202624
  20
-29.5147433479
  30
0.0000000000
  40
10.0000000000
  100
AcDbArc
  50
278.7174569646
  51
329.5742161980
  0
ARC
  5
74
100
AcDbEntity
  8
Системный_слой
100
AcDbCircle
  6
K5LT_BASIC
  62
     5
  10
76.6249685100
  20
5.2644899660
  30
0.0000000000
  40
4.0000000000
  100
AcDbArc
  50
329.5742161980
  51
90.5115558666
  0
ARC
  5
75
100
AcDbEntity
  8
Системный_слой
100
AcDbCircle
  6
K5LT_BASIC
  62
     5
  10
-176.4947328388
  20
166.2221952697
  30
0.0000000000
  40
4.0000000000
  100
AcDbArc
  50
89.7106298366
  51
191.1308760108
  0
LINE
  5
76
100
AcDbEntity
  8
Системный_слой
100
AcDbLine
  6
K5LT_BASIC
  62
     5
  10
-1.6940681217
  20
-47.4416321622
  30
0.0000000000
  11
-54.3164325264
  21
-40.6135312761
  31
0.0000000000
  0
LINE
  5
77
100
AcDbEntity
  8
Системный_слой
100
AcDbLine
  6
K5LT_BASIC
  62
     5
  10
-61.5331720470
  20
-35.9588122016
  30
0.0000000000
  11
-84.6116640269
  21
1.3355553770
  31
0.0000000000
  0
LINE
  5
78
100
AcDbEntity
  8
Системный_слой
100
AcDbLine
  6
K5LT_BASIC
  62
     5
  10
-81.2669920045
  20
7.4400111326
  30
0.0000000000
  11
-2.3417112641
  21
8.5981797546
  31
0.0000000000
  0
ARC
  5
79
100
AcDbEntity
  8
Системный_слой
100
AcDbCircle
  6
K5LT_BASIC
  62
     5
  10
-53.0296535778
  20
-30.6966668554
  30
0.0000000000
  40
10.0000000000
  100
AcDbArc
  50
211.7500411660
  51
262.6068003995
  0
ARC
  5
7a
100
AcDbEntity
  8
Системный_слой
100
AcDbCircle
  6
K5LT_BASIC
  62
     5
  10
-81.2102566392
  20
3.4404135155
  30
0.0000000000
  40
4.0000000000
  100
AcDbArc
  50
90.8127014975
  51
211.7500411660
  0
LINE
  5
7b
100
AcDbEntity
  8
Системный_слой
100
AcDbLine
  6
K5LT_BASIC
  62
     5
  10
-107.0329781090
  20
140.5253957042
  30
0.0000000000
  11
-106.6794329517
  21
169.8696437599
  31
0.0000000000
  0
LINE
  5
7c
100
AcDbEntity
  8
Системный_слой
100
AcDbLine
  6
K5LT_BASIC
  62
     5
  10
-30.7577092727
  20
76.6610783163
  30
0.0000000000
  11
-30.7577092727
  21
80.6610783163
  31
0.0000000000
  0
LINE
  5
7d
100
AcDbEntity
  8
Системный_слой
100
AcDbLine
  6
K5LT_BASIC
  62
     5
  10
-108.1220507305
  20
80.4266409179
  30
0.0000000000
  11
-42.9285426060
  21
95.9756616496
  31
0.0000000000
  0
POLYLINE
  5
7e
100
AcDbEntity
  8
Системный_слой
100
AcDb2dPolyline
  6
K5LT_BASIC
  62
     5
  66
     1
  10
0.0000000000
  20
0.0000000000
  30
0.0000000000
  0
VERTEX
  5
7f
100
AcDbEntity
  8
Системный_слой
100
AcDbVertex
  100
AcDb2dVertex
  10
-42.9285426060
  20
95.9756616496
  30
0.0000000000
  42
0.0000000000
  0
VERTEX
  5
80
100
AcDbEntity
  8
Системный_слой
100
AcDbVertex
  100
AcDb2dVertex
  10
-35.2715091849
  20
103.4344834581
  30
0.0000000000
  42
0.0000000000
  0
VERTEX
  5
81
100
AcDbEntity
  8
Системный_слой
100
AcDbVertex
  100
AcDb2dVertex
  10
-26.7536732699
  20
109.5445159865
  30
0.0000000000
  42
0.0000000000
  0
VERTEX
  5
82
100
AcDbEntity
  8
Системный_слой
100
AcDbVertex
  100
AcDb2dVertex
  10
-25.9846822083
  20
110.0047886858
  30
0.0000000000
  42
0.0000000000
  0
VERTEX
  5
83
100
AcDbEntity
  8
Системный_слой
100
AcDbVertex
  100
AcDb2dVertex
  10
-16.8044593898
  20
114.6935347360
  30
0.0000000000
  42
0.0000000000
  0
VERTEX
  5
84
100
AcDbEntity
  8
Системный_слой
100
AcDbVertex
  100
AcDb2dVertex
  10
-14.8694053857
  20
115.2937032814
  30
0.0000000000
  42
0.0000000000
  0
VERTEX
  5
85
100
AcDbEntity
  8
Системный_слой
100
AcDbVertex
  100
AcDb2dVertex
  10
-8.3093358307
  20
116.2518817419
  30
0.0000000000
  42
0.0000000000
  0
VERTEX
  5
86
100
AcDbEntity
  8
Системный_слой
100
AcDbVertex
  100
AcDb2dVertex
  10
-0.8544902739
  20
115.8185373994
  30
0.0000000000
  42
0.0000000000
  0
VERTEX
  5
87
100
AcDbEntity
  8
Системный_слой
100
AcDbVertex
  100
AcDb2dVertex
  10
5.8866507449
  20
113.9768365374
  30
0.0000000000
  42
0.0000000000
  0
VERTEX
  5
88
100
AcDbEntity
  8
Системный_слой
100
AcDbVertex
  100
AcDb2dVertex
  10
10.5294620462
  20
111.8440091738
  30
0.0000000000
  42
0.0000000000
  0
VERTEX
  5
89
100
AcDbEntity
  8
Системный_слой
100
AcDbVertex
  100
AcDb2dVertex
  10
15.4962945228
  20
108.3620171991
  30
0.0000000000
  42
0.0000000000
  0
VERTEX
  5
8a
100
AcDbEntity
  8
Системный_слой
100
AcDbVertex
  100
AcDb2dVertex
  10
21.3728132204
  20
102.8473712346
  30
0.0000000000
  42
0.0000000000
  0
VERTEX
  5
8b
100
AcDbEntity
  8
Системный_слой
100
AcDbVertex
  100
AcDb2dVertex
  10
24.7910583947
  20
98.8199167567
  30
0.0000000000
  42
0.0000000000
  0
VERTEX
  5
8c
100
AcDbEntity
  8
Системный_слой
100
AcDbVertex
  100
AcDb2dVertex
  10
28.5280575856
  20
94.9029734708
  30
0.0000000000
  42
0.0000000000
  0
VERTEX
  5
8d
100
AcDbEntity
  8
Системный_слой
100
AcDbVertex
  100
AcDb2dVertex
  10
32.3812487660
  20
92.9070044145
  30
0.0000000000
  42
0.0000000000
  0
VERTEX
  5
8e
100
AcDbEntity
  8
Системный_слой
100
AcDbVertex
  100
AcDb2dVertex
  10
37.6416683762
  20
91.8005142565
  30
0.0000000000
  42
0.0000000000
  0
VERTEX
  5
8f
100
AcDbEntity
  8
Системный_слой
100
AcDbVertex
  100
AcDb2dVertex
  10
46.7047429278
  20
91.2466602906
  30
0.0000000000
  42
0.0000000000
  0
VERTEX
  5
90
100
AcDbEntity
  8
Системный_слой
100
AcDbVertex
  100
AcDb2dVertex
  10
53.1338849194
  20
90.4150713286
  30
0.0000000000
  42
0.0000000000
  0
VERTEX
  5
91
100
AcDbEntity
  8
Системный_слой
100
AcDbVertex
  100
AcDb2dVertex
  10
64.9363508940
  20
87.9104622008
  30
0.0000000000
  42
0.0000000000
  0
VERTEX
  5
92
100
AcDbEntity
  8
Системный_слой
100
AcDbVertex
  100
AcDb2dVertex
  10
71.6478336369
  20
85.3860487302
  30
0.0000000000
  42
0.0000000000
  0
VERTEX
  5
93
100
AcDbEntity
  8
Системный_слой
100
AcDbVertex
  100
AcDb2dVertex
  10
78.9043510569
  20
80.7167911603
  30
0.0000000000
  42
0.0000000000
  0
VERTEX
  5
94
100
AcDbEntity
  8
Системный_слой
100
AcDbVertex
  100
AcDb2dVertex
  10
82.4918174346
  20
77.1804797586
  30
0.0000000000
  42
0.0000000000
  0
VERTEX
  5
95
100
AcDbEntity
  8
Системный_слой
100
AcDbVertex
  100
AcDb2dVertex
  10
85.9773756398
  20
71.8588377684
  30
0.0000000000
  42
0.0000000000
  0
VERTEX
  5
96
100
AcDbEntity
  8
Системный_слой
100
AcDbVertex
  100
AcDb2dVertex
  10
87.9916258078
  20
65.9456574552
  30
0.0000000000
  42
0.0000000000
  0
VERTEX
  5
97
100
AcDbEntity
  8
Системный_слой
100
AcDbVertex
  100
AcDb2dVertex
  10
88.0416878498
  20
65.5344600786
  30
0.0000000000
  42
0.0000000000
  0
VERTEX
  5
98
100
AcDbEntity
  8
Системный_слой
100
AcDbVertex
  100
AcDb2dVertex
  10
87.7754283123
  20
61.2824336099
  30
0.0000000000
  42
0.0000000000
  0
VERTEX
  5
99
100
AcDbEntity
  8
Системный_слой
100
AcDbVertex
  100
AcDb2dVertex
  10
86.0489022675
  20
55.9742377082
  30
0.0000000000
  42
0.0000000000
  0
VERTEX
  5
9a
100
AcDbEntity
  8
Системный_слой
100
AcDbVertex
  100
AcDb2dVertex
  10
83.5323635263
  20
50.9790015099
  30
0.0000000000
  42
0.0000000000
  0
VERTEX
  5
9b
100
AcDbEntity
  8
Системный_слой
100
AcDbVertex
  100
AcDb2dVertex
  10
79.7294344521
  20
45.7441890453
  30
0.0000000000
  42
0.0000000000
  0
VERTEX
  5
9c
100
AcDbEntity
  8
Системный_слой
100
AcDbVertex
  100
AcDb2dVertex
  10
74.1087881158
  20
40.5137701494
  30
0.0000000000
  42
0.0000000000
  0
VERTEX
  5
9d
100
AcDbEntity
  8
Системный_слой
100
AcDbVertex
  100
AcDb2dVertex
  10
68.4463752331
  20
36.7005533792
  30
0.0000000000
  42
0.0000000000
  0
VERTEX
  5
9e
100
AcDbEntity
  8
Системный_слой
100
AcDbVertex
  100
AcDb2dVertex
  10
62.2390566513
  20
33.9242205337
  30
0.0000000000
  42
0.0000000000
  0
VERTEX
  5
9f
100
AcDbEntity
  8
Системный_слой
100
AcDbVertex
  100
AcDb2dVertex
  10
53.5914114669
  20
31.5079052010
  30
0.0000000000
  42
0.0000000000
  0
VERTEX
  5
a0
100
AcDbEntity
  8
Системный_слой
100
AcDbVertex
  100
AcDb2dVertex
  10
52.0408298547
  20
31.1490719821
  30
0.0000000000
  42
0.0000000000
  0
VERTEX
  5
a1
100
AcDbEntity
  8
Системный_слой
100
AcDbVertex
  100
AcDb2dVertex
  10
41.2730076362
  20
29.4310470369
  30
0.0000000000
  42
0.0000000000
  0
VERTEX
  5
a2
100
AcDbEntity
  8
Системный_слой
100
AcDbVertex
  100
AcDb2dVertex
  10
35.6353091107
  20
29.0353160403
  30
0.0000000000
  42
0.0000000000
  0
VERTEX
  5
a3
100
AcDbEntity
  8
Системный_слой
100
AcDbVertex
  100
AcDb2dVertex
  10
21.8712673449
  20
29.3586250314
  30
0.0000000000
  42
0.0000000000
  0
VERTEX
  5
a4
100
AcDbEntity
  8
Системный_слой
100
AcDbVertex
  100
AcDb2dVertex
  10
18.1814136524
  20
29.8311918564
  30
0.0000000000
  42
0.0000000000
  0
VERTEX
  5
a5
100
AcDbEntity
  8
Системный_слой
100
AcDbVertex
  100
AcDb2dVertex
  10
9.4589573940
  20
31.6819116496
  30
0.0000000000
  0
SEQEND
  5
a6
100
AcDbEntity
  8
Системный_слой
  0
LINE
  5
a7
100
AcDbEntity
  8
Системный_слой
100
AcDbLine
  6
K5LT_BASIC
  62
     5
  10
9.4589573940
  20
31.6819116496
  30
0.0000000000
  11
22.6881240606
  21
42.2652449830
  31
0.0000000000
  0
LINE
  5
a8
100
AcDbEntity
  8
Системный_слой
100
AcDbLine
  6
K5LT_BASIC
  62
     5
  10
22.6881240606
  20
42.2652449830
  30
0.0000000000
  11
-33.1389592727
  21
43.5881616496
  31
0.0000000000
  0
LINE
  5
a9
100
AcDbEntity
  8
Системный_слой
100
AcDbLine
  6
K5LT_BASIC
  62
     5
  10
-30.7577092727
  20
80.6610783163
  30
0.0000000000
  11
-108.1220507305
  21
80.4266409179
  31
0.0000000000
  0
LINE
  5
aa
100
AcDbEntity
  8
Системный_слой
100
AcDbLine
  6
K5LT_BASIC
  62
     5
  10
-30.7577092727
  20
76.6610783163
  30
0.0000000000
  11
-113.9198770361
  21
76.4090717473
  31
0.0000000000
  0
LINE
  5
ab
100
AcDbEntity
  8
Системный_слой
100
AcDbLine
  6
K5LT_BASIC
  62
     5
  10
-33.1389592727
  20
43.5881616496
  30
0.0000000000
  11
-61.2047468239
  21
45.3412160866
  31
0.0000000000
  0
LINE
  5
ac
100
AcDbEntity
  8
Системный_слой
100
AcDbLine
  6
K5LT_BASIC
  62
     5
  10
-61.2047468239
  20
45.3412160866
  30
0.0000000000
  11
-113.9198770361
  21
76.4090717473
  31
0.0000000000
  0
INSERT
  5
b4
100
AcDbEntity
  8
Системный_слой
100
AcDbBlockReference
  2
*U0
  10
0.0000000000
  20
0.0000000000
  30
0.0000000000
  41
1.0000000000
  42
1.0000000000
  43
1.0000000000
  50
0.0000000000
  0
LINE
  5
b5
100
AcDbEntity
  8
Системный_слой
100
AcDbLine
  6
K5LT_BASIC
  62
     5
  10
-227.6072401508
  20
31.3323781440
  30
0.0000000000
  11
-97.6072401508
  21
31.3323781440
  31
0.0000000000
  0
LINE
  5
b6
100
AcDbEntity
  8
Системный_слой
100
AcDbLine
  6
K5LT_BASIC
  62
     5
  10
-227.6072401508
  20
116.3323781440
  30
0.0000000000
  11
-182.4571313137
  21
116.3323781440
  31
0.0000000000
  0
LINE
  5
b7
100
AcDbEntity
  8
Системный_слой
100
AcDbLine
  6
K5LT_BASIC
  62
     5
  10
-97.6072401508
  20
31.3323781440
  30
0.0000000000
  11
-108.9220383600
  21
57.9946152605
  31
0.0000000000
  0
LINE
  5
b8
100
AcDbEntity
  8
Системный_слой
100
AcDbLine
  6
K5LT_BASIC
  62
     5
  10
-173.4346051695
  20
113.5457812627
  30
0.0000000000
  11
-130.3198307740
  21
84.1056608266
  31
0.0000000000
  0
ARC
  5
b9
100
AcDbEntity
  8
Системный_слой
100
AcDbCircle
  6
K5LT_BASIC
  62
     5
  10
-182.4571313137
  20
100.3323781440
  30
0.0000000000
  40
16.0000000000
  100
AcDbArc
  50
55.6735128504
  51
90.0000000000
  0
ARC
  5
ba
100
AcDbEntity
  8
Системный_слой
100
AcDbCircle
  6
K5LT_BASIC
  62
     5
  10
-164.1543038147
  20
34.5553991314
  30
0.0000000000
  40
60.0000000000
  100
AcDbArc
  50
22.9951745473
  51
55.6735128504
  0
LINE
  5
bb
100
AcDbEntity
  8
Системный_слой
100
AcDbLine
  6
K5LT_AXLED
  62
     30
  10
-362.6072401508
  20
19.6979490337
  30
0.0000000000
  11
-362.6072401508
  21
126.2219073868
  31
0.0000000000
  0
LINE
  5
bc
100
AcDbEntity
  8
Системный_слой
100
AcDbLine
  6
K5LT_BASIC
  62
     5
  10
-497.6072401508
  20
88.3323781440
  30
0.0000000000
  11
-227.6072401508
  21
88.3323781440
  31
0.0000000000
  0
LINE
  5
bd
100
AcDbEntity
  8
Системный_слой
100
AcDbLine
  6
K5LT_BASIC
  62
     5
  10
-497.6072401508
  20
83.3323781440
  30
0.0000000000
  11
-227.6072401508
  21
83.3323781440
  31
0.0000000000
  0
LINE
  5
be
100
AcDbEntity
  8
Системный_слой
100
AcDbLine
  6
K5LT_BASIC
  62
     5
  10
-227.6072401508
  20
83.3323781440
  30
0.0000000000
  11
-196.6251992650
  21
83.3323781440
  31
0.0000000000
  0
LINE
  5
bf
100
AcDbEntity
  8
Системный_слой
100
AcDbLine
  6
K5LT_BASIC
  62
     5
  10
-196.6251992650
  20
80.3323781440
  30
0.0000000000
  11
-227.6072401508
  21
80.3323781440
  31
0.0000000000
  0
LINE
  5
c0
100
AcDbEntity
  8
Системный_слой
100
AcDbLine
  6
K5LT_BASIC
  62
     5
  10
-196.6251992650
  20
83.3323781440
  30
0.0000000000
  11
-196.6251992650
  21
80.3323781440
  31
0.0000000000
  0
LINE
  5
c1
100
AcDbEntity
  8
Системный_слой
100
AcDbLine
  6
K5LT_BASIC
  62
     5
  10
-227.6072401508
  20
83.3323781440
  30
0.0000000000
  11
-258.5892810366
  21
83.3323781440
  31
0.0000000000
  0
LINE
  5
c2
100
AcDbEntity
  8
Системный_слой
100
AcDbLine
  6
K5LT_BASIC
  62
     5
  10
-258.5892810366
  20
80.3323781440
  30
0.0000000000
  11
-227.6072401508
  21
80.3323781440
  31
0.0000000000
  0
LINE
  5
c3
100
AcDbEntity
  8
Системный_слой
100
AcDbLine
  6
K5LT_BASIC
  62
     5
  10
-258.5892810366
  20
83.3323781440
  30
0.0000000000
  11
-258.5892810366
  21
80.3323781440
  31
0.0000000000
  0
LINE
  5
c4
100
AcDbEntity
  8
Системный_слой
100
AcDbLine
  6
K5LT_BASIC
  62
     5
  10
-170.1456983608
  20
-34.7845335464
  30
0.0000000000
  11
-490.9937227401
  21
-15.7736872271
  31
0.0000000000
  0
LINE
  5
c5
100
AcDbEntity
  8
Системный_слой
100
AcDbLine
  6
K5LT_BASIC
  62
     5
  10
-195.2039347958
  20
-38.3085553803
  30
0.0000000000
  11
-169.7803673784
  21
-39.8149493623
  31
0.0000000000
  0
LINE
  5
c6
100
AcDbEntity
  8
Системный_слой
100
AcDbLine
  6
K5LT_BASIC
  62
     5
  10
-169.7803673784
  20
-39.8149493623
  30
0.0000000000
  11
-170.1456983608
  21
-34.7845335464
  31
0.0000000000
  0
LINE
  5
c7
100
AcDbEntity
  8
Системный_слой
100
AcDbLine
  6
K5LT_THIN
  62
     7
  10
6.9486650855
  20
8.6765874026
  30
0.0000000000
  11
6.9486650855
  21
-46.1164130704
  31
0.0000000000
  0
POLYLINE
  5
c8
100
AcDbEntity
  8
Системный_слой
100
AcDb2dPolyline
  6
K5LT_THIN
  62
     7
  66
     1
  10
0.0000000000
  20
0.0000000000
  30
0.0000000000
  0
VERTEX
  5
c9
100
AcDbEntity
  8
Системный_слой
100
AcDbVertex
  100
AcDb2dVertex
  10
6.9486650855
  20
-46.1164130704
  30
0.0000000000
  42
0.0000000000
  0
VERTEX
  5
ca
100
AcDbEntity
  8
Системный_слой
100
AcDbVertex
  100
AcDb2dVertex
  10
9.0011481208
  20
-44.0625151468
  30
0.0000000000
  42
0.0000000000
  0
VERTEX
  5
cb
100
AcDbEntity
  8
Системный_слой
100
AcDbVertex
  100
AcDb2dVertex
  10
9.7817361575
  20
-41.7437775420
  30
0.0000000000
  42
0.0000000000
  0
VERTEX
  5
cc
100
AcDbEntity
  8
Системный_слой
100
AcDbVertex
  100
AcDb2dVertex
  10
10.1082614384
  20
-39.0393183874
  30
0.0000000000
  42
0.0000000000
  0
VERTEX
  5
cd
100
AcDbEntity
  8
Системный_слой
100
AcDbVertex
  100
AcDb2dVertex
  10
10.6048197333
  20
-31.8880671247
  30
0.0000000000
  42
0.0000000000
  0
VERTEX
  5
ce
100
AcDbEntity
  8
Системный_слой
100
AcDbVertex
  100
AcDb2dVertex
  10
10.6370604023
  20
-31.4000511236
  30
0.0000000000
  42
0.0000000000
  0
VERTEX
  5
cf
100
AcDbEntity
  8
Системный_слой
100
AcDbVertex
  100
AcDb2dVertex
  10
10.9153814029
  20
-21.3802953637
  30
0.0000000000
  42
0.0000000000
  0
VERTEX
  5
d0
100
AcDbEntity
  8
Системный_слой
100
AcDbVertex
  100
AcDb2dVertex
  10
10.9256878085
  20
-20.6255215341
  30
0.0000000000
  42
0.0000000000
  0
VERTEX
  5
d1
100
AcDbEntity
  8
Системный_слой
100
AcDbVertex
  100
AcDb2dVertex
  10
10.3422201047
  20
-7.9718652244
  30
0.0000000000
  42
0.0000000000
  0
VERTEX
  5
d2
100
AcDbEntity
  8
Системный_слой
100
AcDbVertex
  100
AcDb2dVertex
  10
9.6981545603
  20
-3.1437379426
  30
0.0000000000
  42
0.0000000000
  0
VERTEX
  5
d3
100
AcDbEntity
  8
Системный_слой
100
AcDbVertex
  100
AcDb2dVertex
  10
7.1713577043
  20
8.7836632873
  30
0.0000000000
  0
SEQEND
  5
d4
100
AcDbEntity
  8
Системный_слой
  0
LINE
  5
d5
100
AcDbEntity
  8
Системный_слой
100
AcDbLine
  6
K5LT_THIN
  62
     7
  10
-505.0776127452
  20
31.3323781440
  30
0.0000000000
  11
-505.0776127452
  21
113.5305982791
  31
0.0000000000
  0
POLYLINE
  5
d6
100
AcDbEntity
  8
Системный_слой
100
AcDb2dPolyline
  6
K5LT_THIN
  62
     7
  66
     1
  10
0.0000000000
  20
0.0000000000
  30
0.0000000000
  0
VERTEX
  5
d7
100
AcDbEntity
  8
Системный_слой
100
AcDbVertex
  100
AcDb2dVertex
  10
-505.0776127452
  20
113.5305982791
  30
0.0000000000
  42
0.0000000000
  0
VERTEX
  5
d8
100
AcDbEntity
  8
Системный_слой
100
AcDbVertex
  100
AcDb2dVertex
  10
-505.7571042096
  20
115.2544847653
  30
0.0000000000
  42
0.0000000000
  0
VERTEX
  5
d9
100
AcDbEntity
  8
Системный_слой
100
AcDbVertex
  100
AcDb2dVertex
  10
-506.2945725708
  20
116.0629454606
  30
0.0000000000
  42
0.0000000000
  0
VERTEX
  5
da
100
AcDbEntity
  8
Системный_слой
100
AcDbVertex
  100
AcDb2dVertex
  10
-506.8502305313
  20
115.7827370288
  30
0.0000000000
  42
0.0000000000
  0
VERTEX
  5
db
100
AcDbEntity
  8
Системный_слой
100
AcDbVertex
  100
AcDb2dVertex
  10
-507.3684045437
  20
114.0388546645
  30
0.0000000000
  42
0.0000000000
  0
VERTEX
  5
dc
100
AcDbEntity
  8
Системный_слой
100
AcDbVertex
  100
AcDb2dVertex
  10
-508.0814302524
  20
109.6821415253
  30
0.0000000000
  42
0.0000000000
  0
VERTEX
  5
dd
100
AcDbEntity
  8
Системный_слой
100
AcDbVertex
  100
AcDb2dVertex
  10
-508.1575965619
  20
109.2839840842
  30
0.0000000000
  42
0.0000000000
  0
VERTEX
  5
de
100
AcDbEntity
  8
Системный_слой
100
AcDbVertex
  100
AcDb2dVertex
  10
-508.9080882781
  20
102.4247750408
  30
0.0000000000
  42
0.0000000000
  0
VERTEX
  5
df
100
AcDbEntity
  8
Системный_слой
100
AcDbVertex
  100
AcDb2dVertex
  10
-509.0780131502
  20
95.4001836061
  30
0.0000000000
  42
0.0000000000
  0
VERTEX
  5
e0
100
AcDbEntity
  8
Системный_слой
100
AcDbVertex
  100
AcDb2dVertex
  10
-509.0258300372
  20
82.1877897469
  30
0.0000000000
  0
SEQEND
  5
e1
100
AcDbEntity
  8
Системный_слой
  0
LINE
  5
e2
100
AcDbEntity
  8
Системный_слой
100
AcDbLine
  6
K5LT_THIN
  62
     7
  10
-509.0258300372
  20
82.1877897469
  30
0.0000000000
  11
-506.1306266615
  21
31.3145177125
  31
0.0000000000
  0
LINE
  5
e3
100
AcDbEntity
  8
Системный_слой
100
AcDbLine
  6
K5LT_THIN
  62
     7
  10
-506.1306266615
  20
31.3145177125
  30
0.0000000000
  11
-505.0776127452
  21
31.3323781440
  31
0.0000000000
  0
LINE
  5
e4
100
AcDbEntity
  8
Системный_слой
100
AcDbLine
  6
K5LT_THIN
  62
     7
  10
-505.0776127452
  20
83.3325987017
  30
0.0000000000
  11
-509.0776127452
  21
83.3496238538
  31
0.0000000000
  0
LINE
  5
e5
100
AcDbEntity
  8
Системный_слой
100
AcDbLine
  6
K5LT_THIN
  62
     7
  10
-505.0614360230
  20
88.3326120780
  30
0.0000000000
  11
-509.1625756404
  21
88.3509248612
  31
0.0000000000
  0
LINE
  5
e6
100
AcDbEntity
  8
Системный_слой
100
AcDbLine
  6
K5LT_BASIC
  62
     5
  10
-315.5135127892
  20
124.0078770920
  30
0.0000000000
  11
-285.5135127892
  21
124.0078770920
  31
0.0000000000
  0
LINE
  5
e7
100
AcDbEntity
  8
Системный_слой
100
AcDbLine
  6
K5LT_BASIC
  62
     5
  10
-285.5135127892
  20
124.0078770920
  30
0.0000000000
  11
-258.3242791781
  21
136.6864249442
  31
0.0000000000
  0
INSERT
  5
ec
100
AcDbEntity
  8
Системный_слой
100
AcDbBlockReference
  2
*U1
  10
0.0000000000
  20
0.0000000000
  30
0.0000000000
  41
1.0000000000
  42
1.0000000000
  43
1.0000000000
  50
0.0000000000
  0
INSERT
  5
f1
100
AcDbEntity
  8
Системный_слой
100
AcDbBlockReference
  2
*U2
  10
0.0000000000
  20
0.0000000000
  30
0.0000000000
  41
1.0000000000
  42
1.0000000000
  43
1.0000000000
  50
0.0000000000
  0
LINE
  5
f2
100
AcDbEntity
  8
Системный_слой
100
AcDbLine
  6
K5LT_BASIC
  62
     5
  10
-315.5135127892
  20
128.0078770920
  30
0.0000000000
  11
-315.5135127892
  21
124.0078770920
  31
0.0000000000
  0
LINE
  5
f3
100
AcDbEntity
  8
Системный_слой
100
AcDbLine
  6
K5LT_BASIC
  62
     5
  10
-260.0147522251
  20
140.3116560924
  30
0.0000000000
  11
-258.3242791781
  21
136.6864249442
  31
0.0000000000
  0
LINE
  5
f4
100
AcDbEntity
  8
Системный_слой
100
AcDbLine
  6
K5LT_BASIC
  62
     5
  10
-109.8079295131
  20
-43.7352070235
  30
0.0000000000
  11
-89.6231421390
  21
-50.8324021636
  31
0.0000000000
  0
LINE
  5
f5
100
AcDbEntity
  8
Системный_слой
100
AcDbLine
  6
K5LT_BASIC
  62
     5
  10
-112.0743723823
  20
-44.5078814756
  30
0.0000000000
  11
-91.4015266474
  21
-51.7766833492
  31
0.0000000000
  0
POLYLINE
  5
f6
100
AcDbEntity
  8
Системный_слой
100
AcDb2dPolyline
  6
K5LT_BASIC
  62
     5
  66
     1
  10
0.0000000000
  20
0.0000000000
  30
0.0000000000
  0
VERTEX
  5
f7
100
AcDbEntity
  8
Системный_слой
100
AcDbVertex
  100
AcDb2dVertex
  10
-89.6231421390
  20
-50.8324021636
  30
0.0000000000
  42
0.0000000000
  0
VERTEX
  5
f8
100
AcDbEntity
  8
Системный_слой
100
AcDbVertex
  100
AcDb2dVertex
  10
-83.2092510414
  20
-46.2592671709
  30
0.0000000000
  42
0.0000000000
  0
VERTEX
  5
f9
100
AcDbEntity
  8
Системный_слой
100
AcDbVertex
  100
AcDb2dVertex
  10
-82.1620544763
  20
-45.1830278046
  30
0.0000000000
  42
0.0000000000
  0
VERTEX
  5
fa
100
AcDbEntity
  8
Системный_слой
100
AcDbVertex
  100
AcDb2dVertex
  10
-78.3833240910
  20
-40.0653929848
  30
0.0000000000
  42
0.0000000000
  0
VERTEX
  5
fb
100
AcDbEntity
  8
Системный_слой
100
AcDbVertex
  100
AcDb2dVertex
  10
-76.0403839343
  20
-34.2745781391
  30
0.0000000000
  42
0.0000000000
  0
VERTEX
  5
fc
100
AcDbEntity
  8
Системный_слой
100
AcDbVertex
  100
AcDb2dVertex
  10
-75.9673232156
  20
-33.8668384893
  30
0.0000000000
  42
0.0000000000
  0
VERTEX
  5
fd
100
AcDbEntity
  8
Системный_слой
100
AcDbVertex
  100
AcDb2dVertex
  10
-75.9945271208
  20
-29.6065705190
  30
0.0000000000
  42
0.0000000000
  0
VERTEX
  5
fe
100
AcDbEntity
  8
Системный_слой
100
AcDbVertex
  100
AcDb2dVertex
  10
-77.4204206915
  20
-24.2098434146
  30
0.0000000000
  42
0.0000000000
  0
VERTEX
  5
ff
100
AcDbEntity
  8
Системный_слой
100
AcDbVertex
  100
AcDb2dVertex
  10
-79.6526459951
  20
-19.0812449601
  30
0.0000000000
  42
0.0000000000
  0
VERTEX
  5
100
100
AcDbEntity
  8
Системный_слой
100
AcDbVertex
  100
AcDb2dVertex
  10
-83.1557884020
  20
-13.6412519123
  30
0.0000000000
  42
0.0000000000
  0
VERTEX
  5
101
100
AcDbEntity
  8
Системный_слой
100
AcDbVertex
  100
AcDb2dVertex
  10
-88.4740296904
  20
-8.1036299802
  30
0.0000000000
  42
0.0000000000
  0
VERTEX
  5
102
100
AcDbEntity
  8
Системный_слой
100
AcDbVertex
  100
AcDb2dVertex
  10
-93.9135091607
  20
-3.9786324187
  30
0.0000000000
  42
0.0000000000
  0
VERTEX
  5
103
100
AcDbEntity
  8
Системный_слой
100
AcDbVertex
  100
AcDb2dVertex
  10
-99.9552283998
  20
-0.8583028399
  30
0.0000000000
  42
0.0000000000
  0
VERTEX
  5
104
100
AcDbEntity
  8
Системный_слой
100
AcDbVertex
  100
AcDb2dVertex
  10
-108.4536331870
  20
2.0395348187
  30
0.0000000000
  42
0.0000000000
  0
VERTEX
  5
105
100
AcDbEntity
  8
Системный_слой
100
AcDbVertex
  100
AcDb2dVertex
  10
-109.9816321257
  20
2.4848255756
  30
0.0000000000
  42
0.0000000000
  0
VERTEX
  5
106
100
AcDbEntity
  8
Системный_слой
100
AcDbVertex
  100
AcDb2dVertex
  10
-120.6360623383
  20
4.8044638856
  30
0.0000000000
  42
0.0000000000
  0
VERTEX
  5
107
100
AcDbEntity
  8
Системный_слой
100
AcDbVertex
  100
AcDb2dVertex
  10
-126.2426655493
  20
5.5159750376
  30
0.0000000000
  42
0.0000000000
  0
VERTEX
  5
108
100
AcDbEntity
  8
Системный_слой
100
AcDbVertex
  100
AcDb2dVertex
  10
-140.0031584149
  20
5.9656532917
  30
0.0000000000
  42
0.0000000000
  0
VERTEX
  5
109
100
AcDbEntity
  8
Системный_слой
100
AcDbVertex
  100
AcDb2dVertex
  10
-143.7137182261
  20
5.7009165108
  30
0.0000000000
  42
0.0000000000
  0
VERTEX
  5
10a
100
AcDbEntity
  8
Системный_слой
100
AcDbVertex
  100
AcDb2dVertex
  10
-152.5262944767
  20
4.3426430625
  30
0.0000000000
  0
SEQEND
  5
10b
100
AcDbEntity
  8
Системный_слой
  0
ARC
  5
10c
100
AcDbEntity
  8
Системный_слой
100
AcDbCircle
  6
K5LT_BASIC
  62
     5
  10
-116.3501960305
  20
-28.2554940347
  30
0.0000000000
  40
16.8054385661
  100
AcDbArc
  50
292.9106145971
  51
284.7398687105
  0
INSERT
  5
153
100
AcDbEntity
  8
Системный_слой
100
AcDbBlockReference
  2
*X0
  10
0.0000000000
  20
0.0000000000
  30
0.0000000000
  0
INSERT
  5
195
100
AcDbEntity
  8
Системный_слой
100
AcDbBlockReference
  2
*X1
  10
0.0000000000
  20
0.0000000000
  30
0.0000000000
  0
INSERT
  5
19d
100
AcDbEntity
  8
Системный_слой
100
AcDbBlockReference
  2
*X2
  10
0.0000000000
  20
0.0000000000
  30
0.0000000000
  0
TEXT
  5
19e
100
AcDbEntity
  8
Системный_слой
  62
     7
100
AcDbText
  10
-440.4115092510
  20
41.5902073161
  30
0.0000000000
  40
10.0000000000
  41
0.7000000000
  1
N1
  7
K5_TEXTSTYLE
  50
0.0000000000
  51
20.0000000000
100
AcDbText
  0
TEXT
  5
19f
100
AcDbEntity
  8
Системный_слой
  62
     7
100
AcDbText
  10
-186.9024084780
  20
41.5902073161
  30
0.0000000000
  40
10.0000000000
  41
0.7000000000
  1
N2
  7
K5_TEXTSTYLE
  50
0.0000000000
  51
20.0000000000
100
AcDbText
  0
TEXT
  5
1a0
100
AcDbEntity
  8
Системный_слой
  62
     7
100
AcDbText
  10
-308.1114472851
  20
133.4872563463
  30
0.0000000000
  40
10.0000000000
  41
0.7000000000
  1
N3
  7
K5_TEXTSTYLE
  50
0.0000000000
  51
20.0000000000
100
AcDbText
  0
TEXT
  5
1a1
100
AcDbEntity
  8
Системный_слой
  62
     7
100
AcDbText
  10
-238.2635528406
  20
-25.3375431542
  30
0.0000000000
  40
10.0000000000
  41
0.7000000000
  1
N5
  7
K5_TEXTSTYLE
  50
0.0000000000
  51
20.0000000000
100
AcDbText
  0
TEXT
  5
1a2
100
AcDbEntity
  8
Системный_слой
  62
     7
100
AcDbText
  10
27.4833264868
  20
56.8810732110
  30
0.0000000000
  40
10.0000000000
  41
0.7000000000
  1
N6
  7
K5_TEXTSTYLE
  50
0.0000000000
  51
20.0000000000
100
AcDbText
  0
TEXT
  5
1a3
100
AcDbEntity
  8
Системный_слой
  62
     7
100
AcDbText
  10
27.4833264868
  20
-21.9704131598
  30
0.0000000000
  40
10.0000000000
  41
0.7000000000
  1
N4
  7
K5_TEXTSTYLE
  50
0.0000000000
  51
20.0000000000
100
AcDbText
  0
TEXT
  5
1a4
100
AcDbEntity
  8
Системный_слой
  62
     7
100
AcDbText
  10
-136.0985354855
  20
141.6114488125
  30
0.0000000000
  40
10.0000000000
  41
0.7000000000
  1
N5
  7
K5_TEXTSTYLE
  50
0.0000000000
  51
20.0000000000
100
AcDbText
  0
ENDSEC
  0
SECTION
  2
OBJECTS
  0
DICTIONARY
  5
c
100
AcDbDictionary
  3
ACAD_GROUP
  350
d
  3
ACAD_MLINESTYLE
  350
1c
  0
DICTIONARY
  5
d
102
{ACAD_REACTORS
  330
c
102
}
100
AcDbDictionary
  0
DICTIONARY
  5
1c
102
{ACAD_REACTORS
  330
c
102
}
100
AcDbDictionary
  3
STANDARD
  350
1d
  0
MLINESTYLE
  5
1d
102
{ACAD_REACTORS
  330
1c
102
}
100
AcDbMlineStyle
  2
STANDARD
  70
     0
  3
 
  62
     256
  51
90.0000000000
  52
90.0000000000
  71
     2
  49
0.5000000000
  62
     256
  6
BYLAYER
  49
-0.5000000000
  62
     256
  6
BYLAYER
  0
ENDSEC
  0
EOF
