  0
SECTION
  2
HEADER
  9
$ACADVER
  1
AC1014
  9
$ACADMAINTVER
  70
     0
  9
$DWGCODEPAGE
  3
ANSI_1251
  9
$INSBASE
  10
0.0000000000
  20
0.0000000000
  30
0.0000000000
  9
$EXTMIN
  10
-90.2294587393
  20
-127.0477101787
  30
0.0000000000
  9
$EXTMAX
  10
163.4186263728
  20
50.6920793854
  30
0.0000000000
  9
$LIMMIN
  10
-90.2294587393
  20
-127.0477101787
  9
$LIMMAX
  10
163.4186263728
  20
50.6920793854
  9
$ORTHOMODE
  70
     0
  9
$REGENMODE
  70
     1
  9
$FILLMODE
  70
     1
  9
$QTEXTMODE
  70
     0
  9
$MIRRTEXT
  70
     1
  9
$DRAGMODE
  70
     2
  9
$LTSCALE
  40
1.0000000000
  9
$OSMODE
  70
     0
  9
$ATTMODE
  70
     1
  9
$TEXTSIZE
  40
5.0000000000
  9
$TRACEWID
  40
5.0000000000
  9
$TEXTSTYLE
  7
K5_TEXTSTYLE
  9
$CLAYER
  8
0
  9
$CELTYPE
  6
BYLAYER
  9
$CECOLOR
  62
     256
  9
$CELTSCALE
  40
1.0000000000
  9
$DELOBJ
  70
     1
  9
$DISPSILH
  70
     0
  9
$DIMSCALE
  40
1.0000000000
  9
$DIMASZ
  40
5.0000000000
  9
$DIMEXO
  40
2.0000000000
  9
$DIMDLI
  40
10.0000000000
  9
$DIMRND
  40
0.0000000000
  9
$DIMDLE
  40
0.0000000000
  9
$DIMEXE
  40
5.0000000000
  9
$DIMTP
  40
0.0000000000
  9
$DIMTM
  40
0.0000000000
  9
$DIMTXT
  40
5.0000000000
  9
$DIMCEN
  40
2.0000000000
  9
$DIMTSZ
  40
0.0000000000
  9
$DIMTOL
  70
     0
  9
$DIMLIM
  70
     0
  9
$DIMTIH
  70
     1
  9
$DIMTOH
  70
     1
  9
$DIMSE1
  70
     0
  9
$DIMSE2
  70
     0
  9
$DIMTAD
  70
     0
  9
$DIMZIN
  70
     0
  9
$DIMBLK
  1

  9
$DIMASO
  70
     0
  9
$DIMSHO
  70
     0
  9
$DIMPOST
  1

  9
$DIMAPOST
  1

  9
$DIMALT
  70
     0
  9
$DIMALTD
  70
     2
  9
$DIMALTF
  40
25.4000000000
  9
$DIMLFAC
  40
1.0000000000
  9
$DIMTOFL
  70
     0
  9
$DIMTVP
  40
0.0000000000
  9
$DIMTIX
  70
     0
  9
$DIMSOXD
  70
     0
  9
$DIMSAH
  70
     0
  9
$DIMBLK1
  1

  9
$DIMBLK2
  1

  9
$DIMSTYLE
  2
K5_DIMSTYLE
  9
$DIMCLRD
  70
     0
  9
$DIMCLRE
  70
     0
  9
$DIMCLRT
  70
     0
  9
$DIMTFAC
  40
0.6660000000
  9
$DIMGAP
  40
0.6250000000
  9
$DIMJUST
  70
     0
  9
$DIMSD1
  70
     0
  9
$DIMSD2
  70
     0
  9
$DIMTOLJ
  70
     1
  9
$DIMTZIN
  70
     0
  9
$DIMALTZ
  70
     0
  9
$DIMALTTZ
  70
     0
  9
$DIMFIT
  70
     3
  9
$DIMUPT
  70
     0
  9
$DIMUNIT
  70
     8
  9
$DIMDEC
  70
     4
  9
$DIMTDEC
  70
     4
  9
$DIMALTU
  70
     8
  9
$DIMALTTD
  70
     4
  9
$DIMTXSTY
  7
K5_DIMSTYLE
  9
$DIMAUNIT
  70
     0
  9
$LUNITS
  70
     2
  9
$LUPREC
  70
     4
  9
$SKETCHINC
  40
2.5000000000
  9
$FILLETRAD
  40
0.0000000000
  9
$AUNITS
  70
     0
  9
$AUPREC
  70
     4
  9
$MENU
  1
acad
  9
$ELEVATION
  40
0.0000000000
  9
$PELEVATION
  40
0.0000000000
  9
$THICKNESS
  40
0.0000000000
  9
$LIMCHECK
  70
     0
  9
$BLIPMODE
  70
     1
  9
$CHAMFERA
  40
10.0000000000
  9
$CHAMFERB
  40
10.0000000000
  9
$CHAMFERC
  40
20.0000000000
  9
$CHAMFERD
  40
0.0000000000
  9
$SKPOLY
  70
     0
  9
$TDCREATE
  40
2446473.5191170140
  9
$TDUPDATE
  40
2447857.1770920139
  9
$TDINDWG
  40
0.0047545139
  9
$TDUSRTIMER
  40
0.0047545139
  9
$USRTIMER
  70
     1
  9
$ANGBASE
  50
0.0000000000
  9
$ANGDIR
  70
     0
  9
$PDMODE
  70
     0
  9
$PDSIZE
  40
0.0000000000
  9
$PLINEWID
  40
0.0000000000
  9
$COORDS
  70
     0
  9
$SPLFRAME
  70
     0
  9
$SPLINETYPE
  70
     6
  9
$SPLINESEGS
  70
     8
  9
$ATTDIA
  70
     0
  9
$ATTREQ
  70
     1
  9
$HANDLING
  70
     1
  9
$HANDSEED
  5
a2
  9
$SURFTAB1
  70
     6
  9
$SURFTAB2
  70
     6
  9
$SURFTYPE
  70
     6
  9
$SURFU
  70
     6
  9
$SURFV
  70
     6
  9
$UCSNAME
  2

  9
$UCSORG
  10
0.0000000000
  20
0.0000000000
  30
0.0000000000
  9
$UCSXDIR
  10
1.0000000000
  20
0.0000000000
  30
0.0000000000
  9
$UCSYDIR
  10
0.0000000000
  20
1.0000000000
  30
0.0000000000
  9
$PUCSNAME
  2

  9
$PUCSORG
  10
0.0000000000
  20
0.0000000000
  30
0.0000000000
  9
$PUCSXDIR
  10
1.0000000000
  20
0.0000000000
  30
0.0000000000
  9
$PUCSYDIR
  10
0.0000000000
  20
1.0000000000
  30
0.0000000000
  9
$USERI1
  70
     0
  9
$USERI2
  70
     0
  9
$USERI3
  70
     0
  9
$USERI4
  70
     0
  9
$USERI5
  70
     0
  9
$USERR1
  40
0.0000000000
  9
$USERR2
  40
0.0000000000
  9
$USERR3
  40
0.0000000000
  9
$USERR4
  40
0.0000000000
  9
$USERR5
  40
0.0000000000
  9
$WORLDVIEW
  70
     1
  9
$SHADEDGE
  70
     3
  9
$SHADEDIF
  70
     70
  9
$TILEMODE
  70
     1
  9
$MAXACTVP
  70
     48
  9
$PINSBASE
  10
0.0000000000
  20
0.0000000000
  30
0.0000000000
  9
$PLIMCHECK
  70
     0
  9
$PEXTMIN
  10
100000000000000000000.000000
  20
100000000000000000000.000000
  30
100000000000000000000.000000
  9
$PEXTMAX
  10
-100000000000000000000.000000
  20
-100000000000000000000.000000
  30
-100000000000000000000.000000
  9
$PLIMMIN
  10
0.0000000000
  20
0.0000000000
  9
$PLIMMAX
  10
163.4186263728
  20
50.6920793854
  9
$UNITMODE
  70
     0
  9
$VISRETAIN
  70
     1
  9
$PLINEGEN
  70
     0
  9
$PSLTSCALE
  70
     1
  9
$TREEDEPTH
  70
     3020
  9
$PICKSTYLE
  70
     1
  9
$CMLSTYLE
  2
STANDARD
  9
$CMLJUST
  70
     0
  9
$CMLSCALE
  40
20.0000000000
  9
$PROXYGRAPHICS
  70
     1
  9
$MEASUREMENT
  70
     1
  0
ENDSEC
  0
SECTION
  2
CLASSES
  0
ENDSEC
  0
SECTION
  2
TABLES
  0
TABLE
  2
VPORT
  5
8
100
AcDbSymbolTable
  70
     2
  0
VPORT
  5
a1
100
AcDbSymbolTableRecord
100
AcDbViewportTableRecord
  2
*ACTIVE
  70
     0
  10
0.0000000000
  20
0.0000000000
  11
1.0000000000
  21
1.0000000000
  12
223.7556630000
  22
574.2795120000
  13
0.0000000000
  23
0.0000000000
  14
10.0000000000
  24
10.0000000000
  15
10.0000000000
  25
10.0000000000
  16
0.0000000000
  26
0.0000000000
  36
1.0000000000
  17
0.0000000000
  27
0.0000000000
  37
0.0000000000
  40
1168.3044060000
  41
1.6961330000
  42
50.0000000000
  43
0.0000000000
  44
0.0000000000
  50
0.0000000000
  51
0.0000000000
  71
     0
  72
     100
  73
     1
  74
     1
  75
     0
  76
     0
  77
     0
  78
     0
  0
ENDTAB
  0
TABLE
  2
LTYPE
  5
5
100
AcDbSymbolTable
  70
     6
  0
LTYPE
  5
13
100
AcDbSymbolTableRecord
100
AcDbLinetypeTableRecord
  2
BYBLOCK
  70
     0
  3
 
  72
     65
  73
     0
  40
0.0000000000
  0
LTYPE
  5
14
100
AcDbSymbolTableRecord
100
AcDbLinetypeTableRecord
  2
BYLAYER
  70
     0
  3
 
  72
     65
  73
     0
  40
0.0000000000
  0
LTYPE
  5
15
100
AcDbSymbolTableRecord
100
AcDbLinetypeTableRecord
  2
CONTINUOUS
  70
     0
  3
 
  72
     65
  73
     0
  40
0.0000000000
  0
LTYPE
  5
22
100
AcDbSymbolTableRecord
100
AcDbLinetypeTableRecord
  2
K5LT_THIN
  70
     64
  3
 
  72
     65
  73
     0
  40
0.0000000000
  0
LTYPE
  5
3e
100
AcDbSymbolTableRecord
100
AcDbLinetypeTableRecord
  2
K5LT32768
  70
     64
  3
 
  72
     65
  73
     0
  40
0.0000000000
  0
LTYPE
  5
52
100
AcDbSymbolTableRecord
100
AcDbLinetypeTableRecord
  2
K5LT_BASIC
  70
     64
  3
 
  72
     65
  73
     0
  40
0.0000000000
  0
ENDTAB
  0
TABLE
  2
LAYER
  5
2
100
AcDbSymbolTable
  70
     2
  0
LAYER
  5
e
100
AcDbSymbolTableRecord
100
AcDbLayerTableRecord
  2
0
  70
     0
  62
     7
  6
CONTINUOUS
  0
LAYER
  5
3c
100
AcDbSymbolTableRecord
100
AcDbLayerTableRecord
  2
Системный_слой
  70
     0
  62
     7
  6
CONTINUOUS
  0
ENDTAB
  0
TABLE
  2
STYLE
  5
3
100
AcDbSymbolTable
  70
     3
  0
STYLE
  5
f
100
AcDbSymbolTableRecord
100
AcDbTextStyleTableRecord
  2
K5_TEXTSTYLE
  70
     0
  40
0.0000000000
  41
0.7000000000
  50
15.0000000000
  71
     0
  42
5.0000000000
  3
win_eskd.shx
  4
b_eskd.shx
  0
STYLE
  5
10
100
AcDbSymbolTableRecord
100
AcDbTextStyleTableRecord
  2
K5_SYMBOLTEXTSTYLE
  70
     0
  40
0.0000000000
  41
0.7000000000
  50
0.0000000000
  71
     0
  42
5.0000000000
  3
win_eskd.shx
  4
b_eskd.shx
  0
STYLE
  5
11
100
AcDbSymbolTableRecord
100
AcDbTextStyleTableRecord
  2
K5_DIMSTYLE
  70
     0
  40
0.0000000000
  41
0.7000000000
  50
15.0000000000
  71
     0
  42
5.0000000000
  3
win_eskd.shx
  4
b_eskd.shx
  0
ENDTAB
  0
TABLE
  2
VIEW
  5
6
100
AcDbSymbolTable
  70
     0
  0
ENDTAB
  0
TABLE
  2
UCS
  5
7
100
AcDbSymbolTable
  70
     0
  0
ENDTAB
  0
TABLE
  2
APPID
  5
9
100
AcDbSymbolTable
  70
     1
  0
APPID
  5
12
100
AcDbSymbolTableRecord
100
AcDbRegAppTableRecord
  2
ACAD
  70
     0
  0
ENDTAB
  0
TABLE
  2
DIMSTYLE
  5
a
100
AcDbSymbolTable
  70
     1
  0
DIMSTYLE
  105
1e
102
{ACAD_REACTORS
102
}
100
AcDbSymbolTableRecord
100
AcDbDimStyleTableRecord
  2
K5_DIMSTYLE
  70
     0
  3
 
  4
 
  5

  6

  7

  40
1.0000000000
  41
1.0000000000
  42
0.0000000000
  43
2.0000000000
  44
2.0000000000
  45
0.0000000000
  46
5.0000000000
  47
0.0000000000
  48
0.0000000000
  140
5.0000000000
  141
5.0000000000
  142
0.0000000000
  143
0.0394000000
  144
1.0000000000
  145
1.0000000000
  146
0.6660000000
  147
1.0000000000
  71
     0
  72
     0
  73
     0
  74
     0
  75
     0
  76
     0
  77
     1
  78
     8
  170
     0
  171
     2
  172
     1
  173
     0
  174
     0
  175
     0
  176
     7
  177
     7
  178
     7
  270
     8
  271
     2
  272
     4
  273
     8
  274
     4
  278
     44
  279
     0
  340
11
  275
     0
  280
     0
  281
     0
  282
     0
  283
     1
  284
     0
  285
     0
  286
     0
  287
     3
  288
     0
  0
ENDTAB
  0
TABLE
  2
BLOCK_RECORD
  5
1
100
AcDbSymbolTable
  70
     6
  0
BLOCK_RECORD
  5
18
100
AcDbSymbolTableRecord
100
AcDbBlockTableRecord
  2
*PAPER_SPACE
  0
BLOCK_RECORD
  5
1b
100
AcDbSymbolTableRecord
100
AcDbBlockTableRecord
  2
*MODEL_SPACE
  0
BLOCK_RECORD
  5
20
100
AcDbSymbolTableRecord
100
AcDbBlockTableRecord
  2
K5_INSIDE
  0
BLOCK_RECORD
  5
2a
100
AcDbSymbolTableRecord
100
AcDbBlockTableRecord
  2
K5_OUTSIDE
  0
BLOCK_RECORD
  5
34
100
AcDbSymbolTableRecord
100
AcDbBlockTableRecord
  2
K5_DOT
  0
BLOCK_RECORD
  5
38
100
AcDbSymbolTableRecord
100
AcDbBlockTableRecord
  2
K5_OBLIQUE
  0
ENDTAB
  0
ENDSEC
  0
SECTION
  2
BLOCKS
  0
BLOCK
  5
16
100
AcDbEntity
  8
0
100
AcDbBlockBegin
  2
*PAPER_SPACE
  70
     0
  10
0.0000000000
  20
0.0000000000
  30
0.0000000000
  3
*PAPER_SPACE
  1
 
  0
ENDBLK
  5
17
100
AcDbEntity
  8
0
100
AcDbBlockEnd
  0
BLOCK
  5
19
100
AcDbEntity
  8
0
100
AcDbBlockBegin
  2
*MODEL_SPACE
  70
     0
  10
0.0000000000
  20
0.0000000000
  30
0.0000000000
  3
*MODEL_SPACE
  1
 
  0
ENDBLK
  5
1a
100
AcDbEntity
  8
0
100
AcDbBlockEnd
  0
BLOCK
  5
1f
100
AcDbEntity
  8
Системный_слой
100
AcDbBlockBegin
  2
K5_INSIDE
  70
     0
  10
0.0000000000
  20
0.0000000000
  30
0.0000000000
  0
LINE
  5
21
100
AcDbEntity
  8
Системный_слой
100
AcDbLine
  6
K5LT_THIN
  62
     7
  10
0.0000000000
  20
0.0000000000
  30
0.0000000000
  11
5.0000000000
  21
0.6582599878
  31
0.0000000000
  0
LINE
  5
23
100
AcDbEntity
  8
Системный_слой
100
AcDbLine
  6
K5LT_THIN
  62
     7
  10
5.0000000000
  20
0.6582599878
  30
0.0000000000
  11
4.5000000000
  21
-0.0000000000
  31
0.0000000000
  0
LINE
  5
24
100
AcDbEntity
  8
Системный_слой
100
AcDbLine
  6
K5LT_THIN
  62
     7
  10
4.5000000000
  20
0.0000000000
  30
0.0000000000
  11
5.0000000000
  21
-0.6582599878
  31
0.0000000000
  0
LINE
  5
25
100
AcDbEntity
  8
Системный_слой
100
AcDbLine
  6
K5LT_THIN
  62
     7
  10
5.0000000000
  20
-0.6582599878
  30
0.0000000000
  11
0.0000000000
  21
-0.0000000000
  31
0.0000000000
  0
SOLID
  5
26
100
AcDbEntity
  8
Системный_слой
100
AcDbTrace
  10
0.0000000000
  20
0.0000000000
  30
0.0000000000
  11
5.0000000000
  21
0.6582599878
  31
0.0000000000
  12
4.5000000000
  22
-0.0000000000
  32
0.0000000000
  13
0.0000000000
  23
0.0000000000
  33
0.0000000000
  0
SOLID
  5
27
100
AcDbEntity
  8
Системный_слой
100
AcDbTrace
  10
5.0000000000
  20
-0.6582599878
  30
0.0000000000
  11
0.0000000000
  21
-0.0000000000
  31
0.0000000000
  12
4.5000000000
  22
0.0000000000
  32
0.0000000000
  13
5.0000000000
  23
-0.6582599878
  33
0.0000000000
  0
ENDBLK
  5
28
100
AcDbEntity
  8
Системный_слой
100
AcDbBlockEnd
  0
BLOCK
  5
29
100
AcDbEntity
  8
Системный_слой
100
AcDbBlockBegin
  2
K5_OUTSIDE
  70
     0
  10
0.0000000000
  20
0.0000000000
  30
0.0000000000
  0
LINE
  5
2b
100
AcDbEntity
  8
Системный_слой
100
AcDbLine
  6
K5LT_THIN
  62
     7
  10
0.0000000000
  20
0.0000000000
  30
0.0000000000
  11
-5.0000000000
  21
0.6582599878
  31
0.0000000000
  0
LINE
  5
2c
100
AcDbEntity
  8
Системный_слой
100
AcDbLine
  6
K5LT_THIN
  62
     7
  10
-5.0000000000
  20
0.6582599878
  30
0.0000000000
  11
-4.5000000000
  21
-0.0000000000
  31
0.0000000000
  0
LINE
  5
2d
100
AcDbEntity
  8
Системный_слой
100
AcDbLine
  6
K5LT_THIN
  62
     7
  10
-4.5000000000
  20
0.0000000000
  30
0.0000000000
  11
-5.0000000000
  21
-0.6582599878
  31
0.0000000000
  0
LINE
  5
2e
100
AcDbEntity
  8
Системный_слой
100
AcDbLine
  6
K5LT_THIN
  62
     7
  10
-5.0000000000
  20
-0.6582599878
  30
0.0000000000
  11
-0.0000000000
  21
-0.0000000000
  31
0.0000000000
  0
LINE
  5
2f
100
AcDbEntity
  8
Системный_слой
100
AcDbLine
  6
K5LT_THIN
  62
     7
  10
0.0000000000
  20
0.0000000000
  30
0.0000000000
  11
-7.0000000000
  21
0.0000000000
  31
0.0000000000
  0
SOLID
  5
30
100
AcDbEntity
  8
Системный_слой
100
AcDbTrace
  10
0.0000000000
  20
0.0000000000
  30
0.0000000000
  11
-5.0000000000
  21
0.6582599878
  31
0.0000000000
  12
-4.5000000000
  22
-0.0000000000
  32
0.0000000000
  13
0.0000000000
  23
0.0000000000
  33
0.0000000000
  0
SOLID
  5
31
100
AcDbEntity
  8
Системный_слой
100
AcDbTrace
  10
-5.0000000000
  20
-0.6582599878
  30
0.0000000000
  11
-0.0000000000
  21
-0.0000000000
  31
0.0000000000
  12
-4.5000000000
  22
0.0000000000
  32
0.0000000000
  13
-5.0000000000
  23
-0.6582599878
  33
0.0000000000
  0
ENDBLK
  5
32
100
AcDbEntity
  8
Системный_слой
100
AcDbBlockEnd
  0
BLOCK
  5
33
100
AcDbEntity
  8
Системный_слой
100
AcDbBlockBegin
  2
K5_DOT
  70
     0
  10
0.0000000000
  20
0.0000000000
  30
0.0000000000
  0
CIRCLE
  5
35
100
AcDbEntity
  8
Системный_слой
100
AcDbCircle
  6
K5LT_THIN
  62
     7
  10
0.0000000000
  20
0.0000000000
  30
0.0000000000
  40
2.0000000000
  0
ENDBLK
  5
36
100
AcDbEntity
  8
Системный_слой
100
AcDbBlockEnd
  0
BLOCK
  5
37
100
AcDbEntity
  8
Системный_слой
100
AcDbBlockBegin
  2
K5_OBLIQUE
  70
     0
  10
0.0000000000
  20
0.0000000000
  30
0.0000000000
  0
LINE
  5
39
100
AcDbEntity
  8
Системный_слой
100
AcDbLine
  6
K5LT_THIN
  62
     7
  10
1.0605000257
  20
1.0605000257
  30
0.0000000000
  11
-1.0605000257
  21
-1.0605000257
  31
0.0000000000
  0
LINE
  5
3a
100
AcDbEntity
  8
Системный_слой
100
AcDbLine
  6
K5LT_THIN
  62
     7
  10
0.0000000000
  20
0.0000000000
  30
0.0000000000
  11
-2.0000000000
  21
0.0000000000
  31
0.0000000000
  0
ENDBLK
  5
3b
100
AcDbEntity
  8
Системный_слой
100
AcDbBlockEnd
  0
ENDSEC
  0
SECTION
  2
ENTITIES
  0
LINE
  5
3d
100
AcDbEntity
  8
Системный_слой
100
AcDbLine
  6
K5LT32768
  62
     5
  10
-90.2294587393
  20
21.5422931070
  30
0.0000000000
  11
-74.4856734291
  21
-117.1647803491
  31
0.0000000000
  0
LINE
  5
3f
100
AcDbEntity
  8
Системный_слой
100
AcDbLine
  6
K5LT32768
  62
     5
  10
-74.4856734291
  20
-117.1647803491
  30
0.0000000000
  11
-20.4174053095
  21
-98.0994890399
  31
0.0000000000
  0
LINE
  5
40
100
AcDbEntity
  8
Системный_слой
100
AcDbLine
  6
K5LT32768
  62
     5
  10
-20.4174053095
  20
-98.0994890399
  30
0.0000000000
  11
160.0221300070
  21
-127.0477101787
  31
0.0000000000
  0
LINE
  5
41
100
AcDbEntity
  8
Системный_слой
100
AcDbLine
  6
K5LT32768
  62
     5
  10
160.0221300070
  20
-127.0477101787
  30
0.0000000000
  11
154.2449267803
  21
-85.2226030310
  31
0.0000000000
  0
LINE
  5
42
100
AcDbEntity
  8
Системный_слой
100
AcDbLine
  6
K5LT32768
  62
     5
  10
154.2449267803
  20
-85.2226030310
  30
0.0000000000
  11
-27.2999746864
  21
-29.4497211731
  31
0.0000000000
  0
LINE
  5
43
100
AcDbEntity
  8
Системный_слой
100
AcDbLine
  6
K5LT32768
  62
     5
  10
-27.2999746864
  20
-29.4497211731
  30
0.0000000000
  11
-90.2294587393
  21
21.5422931070
  31
0.0000000000
  0
LINE
  5
44
100
AcDbEntity
  8
Системный_слой
100
AcDbLine
  6
K5LT32768
  62
     5
  10
162.4007883777
  20
7.9295598616
  30
0.0000000000
  11
152.9938527207
  21
50.6920793854
  31
0.0000000000
  0
LINE
  5
45
100
AcDbEntity
  8
Системный_слой
100
AcDbLine
  6
K5LT32768
  62
     5
  10
152.9938527207
  20
50.6920793854
  30
0.0000000000
  11
96.3941008880
  21
49.2245681827
  31
0.0000000000
  0
POLYLINE
  5
46
100
AcDbEntity
  8
Системный_слой
100
AcDb2dPolyline
  6
K5LT32768
  62
     5
  66
     1
  10
0.0000000000
  20
0.0000000000
  30
0.0000000000
  0
VERTEX
  5
47
100
AcDbEntity
  8
Системный_слой
100
AcDbVertex
  100
AcDb2dVertex
  10
96.3941008880
  20
49.2245681827
  30
0.0000000000
  42
0.0000000000
  0
VERTEX
  5
48
100
AcDbEntity
  8
Системный_слой
100
AcDbVertex
  100
AcDb2dVertex
  10
95.7515215339
  20
43.3877877262
  30
0.0000000000
  42
0.0000000000
  0
VERTEX
  5
49
100
AcDbEntity
  8
Системный_слой
100
AcDbVertex
  100
AcDb2dVertex
  10
96.5127099710
  20
38.1106658564
  30
0.0000000000
  42
0.0000000000
  0
VERTEX
  5
4a
100
AcDbEntity
  8
Системный_слой
100
AcDbVertex
  100
AcDb2dVertex
  10
97.9672191082
  20
34.5888713472
  30
0.0000000000
  42
0.0000000000
  0
VERTEX
  5
4b
100
AcDbEntity
  8
Системный_слой
100
AcDbVertex
  100
AcDb2dVertex
  10
100.8272671414
  20
30.6340673720
  30
0.0000000000
  42
0.0000000000
  0
VERTEX
  5
4c
100
AcDbEntity
  8
Системный_слой
100
AcDbVertex
  100
AcDb2dVertex
  10
101.5619996920
  20
29.8818562517
  30
0.0000000000
  42
0.0000000000
  0
VERTEX
  5
4d
100
AcDbEntity
  8
Системный_слой
100
AcDbVertex
  100
AcDb2dVertex
  10
105.9181511658
  20
26.7147471922
  30
0.0000000000
  42
0.0000000000
  0
VERTEX
  5
4e
100
AcDbEntity
  8
Системный_слой
100
AcDbVertex
  100
AcDb2dVertex
  10
110.4526644179
  20
24.9049830047
  30
0.0000000000
  0
SEQEND
  5
4f
100
AcDbEntity
  8
Системный_слой
  0
LINE
  5
50
100
AcDbEntity
  8
Системный_слой
100
AcDbLine
  6
K5LT32768
  62
     5
  10
110.4526644179
  20
24.9049830047
  30
0.0000000000
  11
162.4007883777
  21
7.9295598616
  31
0.0000000000
  0
LINE
  5
51
100
AcDbEntity
  8
Системный_слой
100
AcDbLine
  6
K5LT_BASIC
  62
     5
  10
-83.3618551967
  20
-38.9631806584
  30
0.0000000000
  11
156.1264352442
  21
-98.8441236902
  31
0.0000000000
  0
LINE
  5
53
100
AcDbEntity
  8
Системный_слой
100
AcDbLine
  6
K5LT_BASIC
  62
     5
  10
-82.7236529898
  20
-44.5859174173
  30
0.0000000000
  11
156.9080434024
  21
-104.5027172485
  31
0.0000000000
  0
LINE
  5
54
100
AcDbEntity
  8
Системный_слой
100
AcDbLine
  6
K5LT_BASIC
  62
     5
  10
115.4467433380
  20
-59.7061566960
  30
0.0000000000
  11
152.6462434149
  21
-57.2801023431
  31
0.0000000000
  0
LINE
  5
55
100
AcDbEntity
  8
Системный_слой
100
AcDbLine
  6
K5LT_BASIC
  62
     5
  10
115.4467433380
  20
-55.6976591059
  30
0.0000000000
  11
152.3859268655
  21
-53.2885819193
  31
0.0000000000
  0
LINE
  5
56
100
AcDbEntity
  8
Системный_слой
100
AcDbLine
  6
K5LT_BASIC
  62
     5
  10
152.6462434149
  20
-57.2801023431
  30
0.0000000000
  11
152.3859268655
  21
-53.2885819193
  31
0.0000000000
  0
LINE
  5
57
100
AcDbEntity
  8
Системный_слой
100
AcDbLine
  6
K5LT_BASIC
  62
     5
  10
115.4467433380
  20
-59.7061566960
  30
0.0000000000
  11
78.2472432611
  21
-57.2801023431
  31
0.0000000000
  0
LINE
  5
58
100
AcDbEntity
  8
Системный_слой
100
AcDbLine
  6
K5LT_BASIC
  62
     5
  10
115.4467433380
  20
-55.6976591059
  30
0.0000000000
  11
78.5075598105
  21
-53.2885819193
  31
0.0000000000
  0
LINE
  5
59
100
AcDbEntity
  8
Системный_слой
100
AcDbLine
  6
K5LT_BASIC
  62
     5
  10
78.2472432611
  20
-57.2801023431
  30
0.0000000000
  11
78.5075598105
  21
-53.2885819193
  31
0.0000000000
  0
LINE
  5
5a
100
AcDbEntity
  8
Системный_слой
100
AcDbLine
  6
K5LT_BASIC
  62
     5
  10
-81.1400425971
  20
-58.5379600010
  30
0.0000000000
  11
-44.3761018912
  21
-54.3651116004
  31
0.0000000000
  0
LINE
  5
5b
100
AcDbEntity
  8
Системный_слой
100
AcDbLine
  6
K5LT_BASIC
  62
     5
  10
-81.1146919401
  20
-61.5543454435
  30
0.0000000000
  11
-35.5458737499
  21
-56.3821096479
  31
0.0000000000
  0
LINE
  5
5c
100
AcDbEntity
  8
Системный_слой
100
AcDbLine
  6
K5LT32768
  62
     5
  10
163.4186263728
  20
-3.9646172231
  30
0.0000000000
  11
159.5669022243
  21
-35.0447024510
  31
0.0000000000
  0
POLYLINE
  5
5d
100
AcDbEntity
  8
Системный_слой
100
AcDb2dPolyline
  6
K5LT32768
  62
     5
  66
     1
  10
0.0000000000
  20
0.0000000000
  30
0.0000000000
  0
VERTEX
  5
5e
100
AcDbEntity
  8
Системный_слой
100
AcDbVertex
  100
AcDb2dVertex
  10
159.5669022243
  20
-35.0447024510
  30
0.0000000000
  42
0.0000000000
  0
VERTEX
  5
5f
100
AcDbEntity
  8
Системный_слой
100
AcDbVertex
  100
AcDb2dVertex
  10
128.8934031698
  20
-37.5257580899
  30
0.0000000000
  42
0.0000000000
  0
VERTEX
  5
60
100
AcDbEntity
  8
Системный_слой
100
AcDbVertex
  100
AcDb2dVertex
  10
104.0142756635
  20
-38.2923770073
  30
0.0000000000
  42
0.0000000000
  0
VERTEX
  5
61
100
AcDbEntity
  8
Системный_слой
100
AcDbVertex
  100
AcDb2dVertex
  10
68.3217310234
  20
-37.5001589961
  30
0.0000000000
  42
0.0000000000
  0
VERTEX
  5
62
100
AcDbEntity
  8
Системный_слой
100
AcDbVertex
  100
AcDb2dVertex
  10
61.5481266689
  20
-37.0292679575
  30
0.0000000000
  42
0.0000000000
  0
VERTEX
  5
63
100
AcDbEntity
  8
Системный_слой
100
AcDbVertex
  100
AcDb2dVertex
  10
31.5650953213
  20
-33.8225437111
  30
0.0000000000
  42
0.0000000000
  0
VERTEX
  5
64
100
AcDbEntity
  8
Системный_слой
100
AcDbVertex
  100
AcDb2dVertex
  10
23.0275571733
  20
-32.2487272853
  30
0.0000000000
  42
0.0000000000
  0
VERTEX
  5
65
100
AcDbEntity
  8
Системный_слой
100
AcDbVertex
  100
AcDb2dVertex
  10
3.7694077171
  20
-27.3207513794
  30
0.0000000000
  42
0.0000000000
  0
VERTEX
  5
66
100
AcDbEntity
  8
Системный_слой
100
AcDbVertex
  100
AcDb2dVertex
  10
-14.9482753552
  20
-20.7740882585
  30
0.0000000000
  42
0.0000000000
  0
VERTEX
  5
67
100
AcDbEntity
  8
Системный_слой
100
AcDbVertex
  100
AcDb2dVertex
  10
-32.2565809251
  20
-12.9055352042
  30
0.0000000000
  42
0.0000000000
  0
VERTEX
  5
68
100
AcDbEntity
  8
Системный_слой
100
AcDbVertex
  100
AcDb2dVertex
  10
-49.6033617500
  20
-3.0334206298
  30
0.0000000000
  42
0.0000000000
  0
VERTEX
  5
69
100
AcDbEntity
  8
Системный_слой
100
AcDbVertex
  100
AcDb2dVertex
  10
-64.8892972869
  20
7.6790537697
  30
0.0000000000
  42
0.0000000000
  0
VERTEX
  5
6a
100
AcDbEntity
  8
Системный_слой
100
AcDbVertex
  100
AcDb2dVertex
  10
-69.2795670812
  20
11.2269915762
  30
0.0000000000
  42
0.0000000000
  0
VERTEX
  5
6b
100
AcDbEntity
  8
Системный_слой
100
AcDbVertex
  100
AcDb2dVertex
  10
-82.2854273933
  20
23.2216993287
  30
0.0000000000
  42
0.0000000000
  0
VERTEX
  5
6c
100
AcDbEntity
  8
Системный_слой
100
AcDbVertex
  100
AcDb2dVertex
  10
-86.1968561701
  20
27.3111275409
  30
0.0000000000
  0
SEQEND
  5
6d
100
AcDbEntity
  8
Системный_слой
  0
LINE
  5
6e
100
AcDbEntity
  8
Системный_слой
100
AcDbLine
  6
K5LT32768
  62
     5
  10
155.9702515861
  20
-9.4355539605
  30
0.0000000000
  11
17.6199729417
  21
9.1584986513
  31
0.0000000000
  0
POLYLINE
  5
6f
100
AcDbEntity
  8
Системный_слой
100
AcDb2dPolyline
  6
K5LT32768
  62
     5
  66
     1
  10
0.0000000000
  20
0.0000000000
  30
0.0000000000
  0
VERTEX
  5
70
100
AcDbEntity
  8
Системный_слой
100
AcDbVertex
  100
AcDb2dVertex
  10
17.6199729417
  20
9.1584986513
  30
0.0000000000
  42
0.0000000000
  0
VERTEX
  5
71
100
AcDbEntity
  8
Системный_слой
100
AcDbVertex
  100
AcDb2dVertex
  10
21.1999214575
  20
4.4975174268
  30
0.0000000000
  42
0.0000000000
  0
VERTEX
  5
72
100
AcDbEntity
  8
Системный_слой
100
AcDbVertex
  100
AcDb2dVertex
  10
23.5101560576
  20
2.5771294248
  30
0.0000000000
  42
0.0000000000
  0
VERTEX
  5
73
100
AcDbEntity
  8
Системный_слой
100
AcDbVertex
  100
AcDb2dVertex
  10
27.5024815036
  20
0.5181651506
  30
0.0000000000
  42
0.0000000000
  0
VERTEX
  5
74
100
AcDbEntity
  8
Системный_слой
100
AcDbVertex
  100
AcDb2dVertex
  10
29.4202212813
  20
-0.2554980550
  30
0.0000000000
  42
0.0000000000
  0
VERTEX
  5
75
100
AcDbEntity
  8
Системный_слой
100
AcDbVertex
  100
AcDb2dVertex
  10
36.3215338236
  20
-2.3324219797
  30
0.0000000000
  42
0.0000000000
  0
VERTEX
  5
76
100
AcDbEntity
  8
Системный_слой
100
AcDbVertex
  100
AcDb2dVertex
  10
43.2697116562
  20
-3.7952655424
  30
0.0000000000
  42
0.0000000000
  0
VERTEX
  5
77
100
AcDbEntity
  8
Системный_слой
100
AcDbVertex
  100
AcDb2dVertex
  10
57.9828751874
  20
-6.3656137952
  30
0.0000000000
  42
0.0000000000
  0
VERTEX
  5
78
100
AcDbEntity
  8
Системный_слой
100
AcDbVertex
  100
AcDb2dVertex
  10
59.0452139121
  20
-6.5252428642
  30
0.0000000000
  42
0.0000000000
  0
VERTEX
  5
79
100
AcDbEntity
  8
Системный_слой
100
AcDbVertex
  100
AcDb2dVertex
  10
77.0120379732
  20
-8.7509046912
  30
0.0000000000
  42
0.0000000000
  0
VERTEX
  5
7a
100
AcDbEntity
  8
Системный_слой
100
AcDbVertex
  100
AcDb2dVertex
  10
101.1052898133
  20
-10.6071211125
  30
0.0000000000
  42
0.0000000000
  0
VERTEX
  5
7b
100
AcDbEntity
  8
Системный_слой
100
AcDbVertex
  100
AcDb2dVertex
  10
125.2514259987
  20
-11.3256543967
  30
0.0000000000
  42
0.0000000000
  0
VERTEX
  5
7c
100
AcDbEntity
  8
Системный_слой
100
AcDbVertex
  100
AcDb2dVertex
  10
147.8204572982
  20
-10.2437357051
  30
0.0000000000
  42
0.0000000000
  0
VERTEX
  5
7d
100
AcDbEntity
  8
Системный_слой
100
AcDbVertex
  100
AcDb2dVertex
  10
155.9702515861
  20
-9.4355539605
  30
0.0000000000
  0
SEQEND
  5
7e
100
AcDbEntity
  8
Системный_слой
  0
LINE
  5
7f
100
AcDbEntity
  8
Системный_слой
100
AcDbLine
  6
K5LT32768
  62
     5
  10
-77.6005139541
  20
18.6328180185
  30
0.0000000000
  11
-53.0010336124
  21
20.8053115049
  31
0.0000000000
  0
POLYLINE
  5
80
100
AcDbEntity
  8
Системный_слой
100
AcDb2dPolyline
  6
K5LT32768
  62
     5
  66
     1
  10
0.0000000000
  20
0.0000000000
  30
0.0000000000
  0
VERTEX
  5
81
100
AcDbEntity
  8
Системный_слой
100
AcDbVertex
  100
AcDb2dVertex
  10
-53.0010336124
  20
20.8053115049
  30
0.0000000000
  42
0.0000000000
  0
VERTEX
  5
82
100
AcDbEntity
  8
Системный_слой
100
AcDbVertex
  100
AcDb2dVertex
  10
-58.9305049624
  20
17.9631442719
  30
0.0000000000
  42
0.0000000000
  0
VERTEX
  5
83
100
AcDbEntity
  8
Системный_слой
100
AcDbVertex
  100
AcDb2dVertex
  10
-64.7881687716
  20
16.2252574663
  30
0.0000000000
  42
0.0000000000
  0
VERTEX
  5
84
100
AcDbEntity
  8
Системный_слой
100
AcDbVertex
  100
AcDb2dVertex
  10
-71.4180696688
  20
15.7342523034
  30
0.0000000000
  42
0.0000000000
  0
VERTEX
  5
85
100
AcDbEntity
  8
Системный_слой
100
AcDbVertex
  100
AcDb2dVertex
  10
-74.3317838701
  20
16.0964095239
  30
0.0000000000
  42
0.0000000000
  0
VERTEX
  5
86
100
AcDbEntity
  8
Системный_слой
100
AcDbVertex
  100
AcDb2dVertex
  10
-77.0648632048
  20
17.9797914164
  30
0.0000000000
  42
0.0000000000
  0
VERTEX
  5
87
100
AcDbEntity
  8
Системный_слой
100
AcDbVertex
  100
AcDb2dVertex
  10
-77.6005139541
  20
18.6328180185
  30
0.0000000000
  0
SEQEND
  5
88
100
AcDbEntity
  8
Системный_слой
  0
ARC
  5
89
100
AcDbEntity
  8
Системный_слой
100
AcDbCircle
  6
K5LT32768
  62
     5
  10
-83.0892248978
  20
30.1956080618
  30
0.0000000000
  40
4.2400000000
  100
AcDbArc
  50
111.8413704890
  51
222.8672476527
  0
POLYLINE
  5
8a
100
AcDbEntity
  8
Системный_слой
100
AcDb2dPolyline
  6
K5LT32768
  62
     5
  66
     1
  10
0.0000000000
  20
0.0000000000
  30
0.0000000000
  0
VERTEX
  5
8b
100
AcDbEntity
  8
Системный_слой
100
AcDbVertex
  100
AcDb2dVertex
  10
-84.6666666666
  20
34.1312500000
  30
0.0000000000
  42
0.0000000000
  0
VERTEX
  5
8c
100
AcDbEntity
  8
Системный_слой
100
AcDbVertex
  100
AcDb2dVertex
  10
-69.7955774867
  20
39.1925159363
  30
0.0000000000
  42
0.0000000000
  0
VERTEX
  5
8d
100
AcDbEntity
  8
Системный_слой
100
AcDbVertex
  100
AcDb2dVertex
  10
-63.8323044480
  20
40.7328382934
  30
0.0000000000
  42
0.0000000000
  0
VERTEX
  5
8e
100
AcDbEntity
  8
Системный_слой
100
AcDbVertex
  100
AcDb2dVertex
  10
-51.3485589286
  20
42.8873500446
  30
0.0000000000
  42
0.0000000000
  0
VERTEX
  5
8f
100
AcDbEntity
  8
Системный_слой
100
AcDbVertex
  100
AcDb2dVertex
  10
-36.1221618103
  20
43.9787031718
  30
0.0000000000
  42
0.0000000000
  0
VERTEX
  5
90
100
AcDbEntity
  8
Системный_слой
100
AcDbVertex
  100
AcDb2dVertex
  10
-19.8424623920
  20
44.2258702520
  30
0.0000000000
  42
0.0000000000
  0
VERTEX
  5
91
100
AcDbEntity
  8
Системный_слой
100
AcDbVertex
  100
AcDb2dVertex
  10
0.6869550668
  20
43.5432613609
  30
0.0000000000
  42
0.0000000000
  0
VERTEX
  5
92
100
AcDbEntity
  8
Системный_слой
100
AcDbVertex
  100
AcDb2dVertex
  10
23.4123668457
  20
41.1869218759
  30
0.0000000000
  42
0.0000000000
  0
VERTEX
  5
93
100
AcDbEntity
  8
Системный_слой
100
AcDbVertex
  100
AcDb2dVertex
  10
34.9122947574
  20
39.4657376394
  30
0.0000000000
  42
0.0000000000
  0
VERTEX
  5
94
100
AcDbEntity
  8
Системный_слой
100
AcDbVertex
  100
AcDb2dVertex
  10
57.1578517545
  20
35.0373867578
  30
0.0000000000
  42
0.0000000000
  0
VERTEX
  5
95
100
AcDbEntity
  8
Системный_слой
100
AcDbVertex
  100
AcDb2dVertex
  10
81.9475239636
  20
28.4899492269
  30
0.0000000000
  42
0.0000000000
  0
VERTEX
  5
96
100
AcDbEntity
  8
Системный_слой
100
AcDbVertex
  100
AcDb2dVertex
  10
87.4703551593
  20
26.8409832577
  30
0.0000000000
  42
0.0000000000
  0
VERTEX
  5
97
100
AcDbEntity
  8
Системный_слой
100
AcDbVertex
  100
AcDb2dVertex
  10
113.5945985127
  20
18.0192343802
  30
0.0000000000
  42
0.0000000000
  0
VERTEX
  5
98
100
AcDbEntity
  8
Системный_слой
100
AcDbVertex
  100
AcDb2dVertex
  10
137.2577181789
  20
8.4632296256
  30
0.0000000000
  42
0.0000000000
  0
VERTEX
  5
99
100
AcDbEntity
  8
Системный_слой
100
AcDbVertex
  100
AcDb2dVertex
  10
162.4042869538
  20
-3.4443968705
  30
0.0000000000
  42
0.0000000000
  0
VERTEX
  5
9a
100
AcDbEntity
  8
Системный_слой
100
AcDbVertex
  100
AcDb2dVertex
  10
163.4186263728
  20
-3.9646172231
  30
0.0000000000
  0
SEQEND
  5
9b
100
AcDbEntity
  8
Системный_слой
  0
TEXT
  5
9c
100
AcDbEntity
  8
Системный_слой
  62
     7
100
AcDbText
  10
-67.0022825029
  20
-32.7646712942
  30
0.0000000000
  40
10.0000000000
  41
0.7000000000
  1
N2
  7
K5_TEXTSTYLE
  50
359.8657496081
  51
20.0000000000
100
AcDbText
  0
TEXT
  5
9d
100
AcDbEntity
  8
Системный_слой
  62
     7
100
AcDbText
  10
107.7157161055
  20
-52.2513004919
  30
0.0000000000
  40
10.0000000000
  41
0.7000000000
  1
N3
  7
K5_TEXTSTYLE
  50
0.0000000000
  51
20.0000000000
100
AcDbText
  0
TEXT
  5
9e
100
AcDbEntity
  8
Системный_слой
  62
     7
100
AcDbText
  10
-31.5417807730
  20
-124.3304140795
  30
0.0000000000
  40
10.0000000000
  41
0.7000000000
  1
Шаблони
  7
K5_TEXTSTYLE
  50
359.8657496081
  51
20.0000000000
100
AcDbText
  0
TEXT
  5
9f
100
AcDbEntity
  8
Системный_слой
  62
     7
100
AcDbText
  10
-15.2877976234
  20
1.1817315260
  30
0.0000000000
  40
10.0000000000
  41
0.7000000000
  1
N1
  7
K5_TEXTSTYLE
  50
352.9354108322
  51
20.0000000000
100
AcDbText
  0
TEXT
  5
a0
100
AcDbEntity
  8
Системный_слой
  62
     7
100
AcDbText
  10
117.6608657308
  20
31.3330354168
  30
0.0000000000
  40
10.0000000000
  41
0.7000000000
  1
N4
  7
K5_TEXTSTYLE
  50
0.0000000000
  51
20.0000000000
100
AcDbText
  0
ENDSEC
  0
SECTION
  2
OBJECTS
  0
DICTIONARY
  5
c
100
AcDbDictionary
  3
ACAD_GROUP
  350
d
  3
ACAD_MLINESTYLE
  350
1c
  0
DICTIONARY
  5
d
102
{ACAD_REACTORS
  330
c
102
}
100
AcDbDictionary
  0
DICTIONARY
  5
1c
102
{ACAD_REACTORS
  330
c
102
}
100
AcDbDictionary
  3
STANDARD
  350
1d
  0
MLINESTYLE
  5
1d
102
{ACAD_REACTORS
  330
1c
102
}
100
AcDbMlineStyle
  2
STANDARD
  70
     0
  3
 
  62
     256
  51
90.0000000000
  52
90.0000000000
  71
     2
  49
0.5000000000
  62
     256
  6
BYLAYER
  49
-0.5000000000
  62
     256
  6
BYLAYER
  0
ENDSEC
  0
EOF
