  0
SECTION
  2
HEADER
  9
$ACADVER
  1
AC1014
  9
$ACADMAINTVER
  70
     0
  9
$DWGCODEPAGE
  3
ANSI_1251
  9
$INSBASE
  10
0.0000000000
  20
0.0000000000
  30
0.0000000000
  9
$EXTMIN
  10
-292.8559308428
  20
30.0829592519
  30
0.0000000000
  9
$EXTMAX
  10
79.3270887799
  20
313.1139948055
  30
0.0000000000
  9
$LIMMIN
  10
-292.8559308428
  20
30.0829592519
  9
$LIMMAX
  10
79.3270887799
  20
313.1139948055
  9
$ORTHOMODE
  70
     0
  9
$REGENMODE
  70
     1
  9
$FILLMODE
  70
     1
  9
$QTEXTMODE
  70
     0
  9
$MIRRTEXT
  70
     1
  9
$DRAGMODE
  70
     2
  9
$LTSCALE
  40
1.0000000000
  9
$OSMODE
  70
     0
  9
$ATTMODE
  70
     1
  9
$TEXTSIZE
  40
5.0000000000
  9
$TRACEWID
  40
5.0000000000
  9
$TEXTSTYLE
  7
K5_TEXTSTYLE
  9
$CLAYER
  8
0
  9
$CELTYPE
  6
BYLAYER
  9
$CECOLOR
  62
     256
  9
$CELTSCALE
  40
1.0000000000
  9
$DELOBJ
  70
     1
  9
$DISPSILH
  70
     0
  9
$DIMSCALE
  40
1.0000000000
  9
$DIMASZ
  40
5.0000000000
  9
$DIMEXO
  40
2.0000000000
  9
$DIMDLI
  40
10.0000000000
  9
$DIMRND
  40
0.0000000000
  9
$DIMDLE
  40
0.0000000000
  9
$DIMEXE
  40
5.0000000000
  9
$DIMTP
  40
0.0000000000
  9
$DIMTM
  40
0.0000000000
  9
$DIMTXT
  40
5.0000000000
  9
$DIMCEN
  40
2.0000000000
  9
$DIMTSZ
  40
0.0000000000
  9
$DIMTOL
  70
     0
  9
$DIMLIM
  70
     0
  9
$DIMTIH
  70
     1
  9
$DIMTOH
  70
     1
  9
$DIMSE1
  70
     0
  9
$DIMSE2
  70
     0
  9
$DIMTAD
  70
     0
  9
$DIMZIN
  70
     0
  9
$DIMBLK
  1

  9
$DIMASO
  70
     0
  9
$DIMSHO
  70
     0
  9
$DIMPOST
  1

  9
$DIMAPOST
  1

  9
$DIMALT
  70
     0
  9
$DIMALTD
  70
     2
  9
$DIMALTF
  40
25.4000000000
  9
$DIMLFAC
  40
1.0000000000
  9
$DIMTOFL
  70
     0
  9
$DIMTVP
  40
0.0000000000
  9
$DIMTIX
  70
     0
  9
$DIMSOXD
  70
     0
  9
$DIMSAH
  70
     0
  9
$DIMBLK1
  1

  9
$DIMBLK2
  1

  9
$DIMSTYLE
  2
K5_DIMSTYLE
  9
$DIMCLRD
  70
     0
  9
$DIMCLRE
  70
     0
  9
$DIMCLRT
  70
     0
  9
$DIMTFAC
  40
0.6660000000
  9
$DIMGAP
  40
0.6250000000
  9
$DIMJUST
  70
     0
  9
$DIMSD1
  70
     0
  9
$DIMSD2
  70
     0
  9
$DIMTOLJ
  70
     1
  9
$DIMTZIN
  70
     0
  9
$DIMALTZ
  70
     0
  9
$DIMALTTZ
  70
     0
  9
$DIMFIT
  70
     3
  9
$DIMUPT
  70
     0
  9
$DIMUNIT
  70
     8
  9
$DIMDEC
  70
     4
  9
$DIMTDEC
  70
     4
  9
$DIMALTU
  70
     8
  9
$DIMALTTD
  70
     4
  9
$DIMTXSTY
  7
K5_DIMSTYLE
  9
$DIMAUNIT
  70
     0
  9
$LUNITS
  70
     2
  9
$LUPREC
  70
     4
  9
$SKETCHINC
  40
2.5000000000
  9
$FILLETRAD
  40
0.0000000000
  9
$AUNITS
  70
     0
  9
$AUPREC
  70
     4
  9
$MENU
  1
acad
  9
$ELEVATION
  40
0.0000000000
  9
$PELEVATION
  40
0.0000000000
  9
$THICKNESS
  40
0.0000000000
  9
$LIMCHECK
  70
     0
  9
$BLIPMODE
  70
     1
  9
$CHAMFERA
  40
10.0000000000
  9
$CHAMFERB
  40
10.0000000000
  9
$CHAMFERC
  40
20.0000000000
  9
$CHAMFERD
  40
0.0000000000
  9
$SKPOLY
  70
     0
  9
$TDCREATE
  40
2446473.5191170140
  9
$TDUPDATE
  40
2447857.1770920139
  9
$TDINDWG
  40
0.0047545139
  9
$TDUSRTIMER
  40
0.0047545139
  9
$USRTIMER
  70
     1
  9
$ANGBASE
  50
0.0000000000
  9
$ANGDIR
  70
     0
  9
$PDMODE
  70
     0
  9
$PDSIZE
  40
0.0000000000
  9
$PLINEWID
  40
0.0000000000
  9
$COORDS
  70
     0
  9
$SPLFRAME
  70
     0
  9
$SPLINETYPE
  70
     6
  9
$SPLINESEGS
  70
     8
  9
$ATTDIA
  70
     0
  9
$ATTREQ
  70
     1
  9
$HANDLING
  70
     1
  9
$HANDSEED
  5
10d
  9
$SURFTAB1
  70
     6
  9
$SURFTAB2
  70
     6
  9
$SURFTYPE
  70
     6
  9
$SURFU
  70
     6
  9
$SURFV
  70
     6
  9
$UCSNAME
  2

  9
$UCSORG
  10
0.0000000000
  20
0.0000000000
  30
0.0000000000
  9
$UCSXDIR
  10
1.0000000000
  20
0.0000000000
  30
0.0000000000
  9
$UCSYDIR
  10
0.0000000000
  20
1.0000000000
  30
0.0000000000
  9
$PUCSNAME
  2

  9
$PUCSORG
  10
0.0000000000
  20
0.0000000000
  30
0.0000000000
  9
$PUCSXDIR
  10
1.0000000000
  20
0.0000000000
  30
0.0000000000
  9
$PUCSYDIR
  10
0.0000000000
  20
1.0000000000
  30
0.0000000000
  9
$USERI1
  70
     0
  9
$USERI2
  70
     0
  9
$USERI3
  70
     0
  9
$USERI4
  70
     0
  9
$USERI5
  70
     0
  9
$USERR1
  40
0.0000000000
  9
$USERR2
  40
0.0000000000
  9
$USERR3
  40
0.0000000000
  9
$USERR4
  40
0.0000000000
  9
$USERR5
  40
0.0000000000
  9
$WORLDVIEW
  70
     1
  9
$SHADEDGE
  70
     3
  9
$SHADEDIF
  70
     70
  9
$TILEMODE
  70
     1
  9
$MAXACTVP
  70
     48
  9
$PINSBASE
  10
0.0000000000
  20
0.0000000000
  30
0.0000000000
  9
$PLIMCHECK
  70
     0
  9
$PEXTMIN
  10
100000000000000000000.000000
  20
100000000000000000000.000000
  30
100000000000000000000.000000
  9
$PEXTMAX
  10
-100000000000000000000.000000
  20
-100000000000000000000.000000
  30
-100000000000000000000.000000
  9
$PLIMMIN
  10
0.0000000000
  20
0.0000000000
  9
$PLIMMAX
  10
79.3270887799
  20
313.1139948055
  9
$UNITMODE
  70
     0
  9
$VISRETAIN
  70
     1
  9
$PLINEGEN
  70
     0
  9
$PSLTSCALE
  70
     1
  9
$TREEDEPTH
  70
     3020
  9
$PICKSTYLE
  70
     1
  9
$CMLSTYLE
  2
STANDARD
  9
$CMLJUST
  70
     0
  9
$CMLSCALE
  40
20.0000000000
  9
$PROXYGRAPHICS
  70
     1
  9
$MEASUREMENT
  70
     1
  0
ENDSEC
  0
SECTION
  2
CLASSES
  0
ENDSEC
  0
SECTION
  2
TABLES
  0
TABLE
  2
VPORT
  5
8
100
AcDbSymbolTable
  70
     2
  0
VPORT
  5
10c
100
AcDbSymbolTableRecord
100
AcDbViewportTableRecord
  2
*ACTIVE
  70
     0
  10
0.0000000000
  20
0.0000000000
  11
1.0000000000
  21
1.0000000000
  12
223.7556630000
  22
574.2795120000
  13
0.0000000000
  23
0.0000000000
  14
10.0000000000
  24
10.0000000000
  15
10.0000000000
  25
10.0000000000
  16
0.0000000000
  26
0.0000000000
  36
1.0000000000
  17
0.0000000000
  27
0.0000000000
  37
0.0000000000
  40
1168.3044060000
  41
1.6961330000
  42
50.0000000000
  43
0.0000000000
  44
0.0000000000
  50
0.0000000000
  51
0.0000000000
  71
     0
  72
     100
  73
     1
  74
     1
  75
     0
  76
     0
  77
     0
  78
     0
  0
ENDTAB
  0
TABLE
  2
LTYPE
  5
5
100
AcDbSymbolTable
  70
     6
  0
LTYPE
  5
13
100
AcDbSymbolTableRecord
100
AcDbLinetypeTableRecord
  2
BYBLOCK
  70
     0
  3
 
  72
     65
  73
     0
  40
0.0000000000
  0
LTYPE
  5
14
100
AcDbSymbolTableRecord
100
AcDbLinetypeTableRecord
  2
BYLAYER
  70
     0
  3
 
  72
     65
  73
     0
  40
0.0000000000
  0
LTYPE
  5
15
100
AcDbSymbolTableRecord
100
AcDbLinetypeTableRecord
  2
CONTINUOUS
  70
     0
  3
 
  72
     65
  73
     0
  40
0.0000000000
  0
LTYPE
  5
22
100
AcDbSymbolTableRecord
100
AcDbLinetypeTableRecord
  2
K5LT_THIN
  70
     64
  3
 
  72
     65
  73
     0
  40
0.0000000000
  0
LTYPE
  5
3f
100
AcDbSymbolTableRecord
100
AcDbLinetypeTableRecord
  2
K5LT_BASIC
  70
     64
  3
 
  72
     65
  73
     0
  40
0.0000000000
  0
LTYPE
  5
65
100
AcDbSymbolTableRecord
100
AcDbLinetypeTableRecord
  2
K5LT_DASHED
  70
     64
  3
 
  72
     65
  73
     2
  40
6.0000000000
  49
4.0000000000
  74
     0
  49
-2.0000000000
  74
     0
  0
ENDTAB
  0
TABLE
  2
LAYER
  5
2
100
AcDbSymbolTable
  70
     3
  0
LAYER
  5
e
100
AcDbSymbolTableRecord
100
AcDbLayerTableRecord
  2
0
  70
     0
  62
     7
  6
CONTINUOUS
  0
LAYER
  5
3c
100
AcDbSymbolTableRecord
100
AcDbLayerTableRecord
  2
Системный_слой
  70
     0
  62
     7
  6
CONTINUOUS
  0
LAYER
  5
3d
100
AcDbSymbolTableRecord
100
AcDbLayerTableRecord
  2
Слой_1
  70
     0
  62
     7
  6
CONTINUOUS
  0
ENDTAB
  0
TABLE
  2
STYLE
  5
3
100
AcDbSymbolTable
  70
     3
  0
STYLE
  5
f
100
AcDbSymbolTableRecord
100
AcDbTextStyleTableRecord
  2
K5_TEXTSTYLE
  70
     0
  40
0.0000000000
  41
0.7000000000
  50
15.0000000000
  71
     0
  42
5.0000000000
  3
win_eskd.shx
  4
b_eskd.shx
  0
STYLE
  5
10
100
AcDbSymbolTableRecord
100
AcDbTextStyleTableRecord
  2
K5_SYMBOLTEXTSTYLE
  70
     0
  40
0.0000000000
  41
0.7000000000
  50
0.0000000000
  71
     0
  42
5.0000000000
  3
win_eskd.shx
  4
b_eskd.shx
  0
STYLE
  5
11
100
AcDbSymbolTableRecord
100
AcDbTextStyleTableRecord
  2
K5_DIMSTYLE
  70
     0
  40
0.0000000000
  41
0.7000000000
  50
15.0000000000
  71
     0
  42
5.0000000000
  3
win_eskd.shx
  4
b_eskd.shx
  0
ENDTAB
  0
TABLE
  2
VIEW
  5
6
100
AcDbSymbolTable
  70
     0
  0
ENDTAB
  0
TABLE
  2
UCS
  5
7
100
AcDbSymbolTable
  70
     0
  0
ENDTAB
  0
TABLE
  2
APPID
  5
9
100
AcDbSymbolTable
  70
     1
  0
APPID
  5
12
100
AcDbSymbolTableRecord
100
AcDbRegAppTableRecord
  2
ACAD
  70
     0
  0
ENDTAB
  0
TABLE
  2
DIMSTYLE
  5
a
100
AcDbSymbolTable
  70
     1
  0
DIMSTYLE
  105
1e
102
{ACAD_REACTORS
102
}
100
AcDbSymbolTableRecord
100
AcDbDimStyleTableRecord
  2
K5_DIMSTYLE
  70
     0
  3
 
  4
 
  5

  6

  7

  40
1.0000000000
  41
1.0000000000
  42
0.0000000000
  43
2.0000000000
  44
2.0000000000
  45
0.0000000000
  46
5.0000000000
  47
0.0000000000
  48
0.0000000000
  140
5.0000000000
  141
5.0000000000
  142
0.0000000000
  143
0.0394000000
  144
1.0000000000
  145
1.0000000000
  146
0.6660000000
  147
1.0000000000
  71
     0
  72
     0
  73
     0
  74
     0
  75
     0
  76
     0
  77
     1
  78
     8
  170
     0
  171
     2
  172
     1
  173
     0
  174
     0
  175
     0
  176
     7
  177
     7
  178
     7
  270
     8
  271
     2
  272
     4
  273
     8
  274
     4
  278
     44
  279
     0
  340
11
  275
     0
  280
     0
  281
     0
  282
     0
  283
     1
  284
     0
  285
     0
  286
     0
  287
     3
  288
     0
  0
ENDTAB
  0
TABLE
  2
BLOCK_RECORD
  5
1
100
AcDbSymbolTable
  70
     17
  0
BLOCK_RECORD
  5
18
100
AcDbSymbolTableRecord
100
AcDbBlockTableRecord
  2
*PAPER_SPACE
  0
BLOCK_RECORD
  5
1b
100
AcDbSymbolTableRecord
100
AcDbBlockTableRecord
  2
*MODEL_SPACE
  0
BLOCK_RECORD
  5
20
100
AcDbSymbolTableRecord
100
AcDbBlockTableRecord
  2
K5_INSIDE
  0
BLOCK_RECORD
  5
2a
100
AcDbSymbolTableRecord
100
AcDbBlockTableRecord
  2
K5_OUTSIDE
  0
BLOCK_RECORD
  5
34
100
AcDbSymbolTableRecord
100
AcDbBlockTableRecord
  2
K5_DOT
  0
BLOCK_RECORD
  5
38
100
AcDbSymbolTableRecord
100
AcDbBlockTableRecord
  2
K5_OBLIQUE
  0
BLOCK_RECORD
  5
67
100
AcDbSymbolTableRecord
100
AcDbBlockTableRecord
  2
*U0
  0
BLOCK_RECORD
  5
77
100
AcDbSymbolTableRecord
100
AcDbBlockTableRecord
  2
*U1
  0
BLOCK_RECORD
  5
7f
100
AcDbSymbolTableRecord
100
AcDbBlockTableRecord
  2
*U2
  0
BLOCK_RECORD
  5
8f
100
AcDbSymbolTableRecord
100
AcDbBlockTableRecord
  2
*U3
  0
BLOCK_RECORD
  5
b0
100
AcDbSymbolTableRecord
100
AcDbBlockTableRecord
  2
*U4
  0
BLOCK_RECORD
  5
c0
100
AcDbSymbolTableRecord
100
AcDbBlockTableRecord
  2
*U5
  0
BLOCK_RECORD
  5
c8
100
AcDbSymbolTableRecord
100
AcDbBlockTableRecord
  2
*U6
  0
BLOCK_RECORD
  5
d1
100
AcDbSymbolTableRecord
100
AcDbBlockTableRecord
  2
*U7
  0
BLOCK_RECORD
  5
db
100
AcDbSymbolTableRecord
100
AcDbBlockTableRecord
  2
*U8
  0
BLOCK_RECORD
  5
e0
100
AcDbSymbolTableRecord
100
AcDbBlockTableRecord
  2
*U9
  0
BLOCK_RECORD
  5
e5
100
AcDbSymbolTableRecord
100
AcDbBlockTableRecord
  2
*U10
  0
ENDTAB
  0
ENDSEC
  0
SECTION
  2
BLOCKS
  0
BLOCK
  5
16
100
AcDbEntity
  8
0
100
AcDbBlockBegin
  2
*PAPER_SPACE
  70
     0
  10
0.0000000000
  20
0.0000000000
  30
0.0000000000
  3
*PAPER_SPACE
  1
 
  0
ENDBLK
  5
17
100
AcDbEntity
  8
0
100
AcDbBlockEnd
  0
BLOCK
  5
19
100
AcDbEntity
  8
0
100
AcDbBlockBegin
  2
*MODEL_SPACE
  70
     0
  10
0.0000000000
  20
0.0000000000
  30
0.0000000000
  3
*MODEL_SPACE
  1
 
  0
ENDBLK
  5
1a
100
AcDbEntity
  8
0
100
AcDbBlockEnd
  0
BLOCK
  5
1f
100
AcDbEntity
  8
Системный_слой
100
AcDbBlockBegin
  2
K5_INSIDE
  70
     0
  10
0.0000000000
  20
0.0000000000
  30
0.0000000000
  0
LINE
  5
21
100
AcDbEntity
  8
Системный_слой
100
AcDbLine
  6
K5LT_THIN
  62
     7
  10
0.0000000000
  20
0.0000000000
  30
0.0000000000
  11
5.0000000000
  21
0.6582599878
  31
0.0000000000
  0
LINE
  5
23
100
AcDbEntity
  8
Системный_слой
100
AcDbLine
  6
K5LT_THIN
  62
     7
  10
5.0000000000
  20
0.6582599878
  30
0.0000000000
  11
4.5000000000
  21
-0.0000000000
  31
0.0000000000
  0
LINE
  5
24
100
AcDbEntity
  8
Системный_слой
100
AcDbLine
  6
K5LT_THIN
  62
     7
  10
4.5000000000
  20
0.0000000000
  30
0.0000000000
  11
5.0000000000
  21
-0.6582599878
  31
0.0000000000
  0
LINE
  5
25
100
AcDbEntity
  8
Системный_слой
100
AcDbLine
  6
K5LT_THIN
  62
     7
  10
5.0000000000
  20
-0.6582599878
  30
0.0000000000
  11
0.0000000000
  21
-0.0000000000
  31
0.0000000000
  0
SOLID
  5
26
100
AcDbEntity
  8
Системный_слой
100
AcDbTrace
  10
0.0000000000
  20
0.0000000000
  30
0.0000000000
  11
5.0000000000
  21
0.6582599878
  31
0.0000000000
  12
4.5000000000
  22
-0.0000000000
  32
0.0000000000
  13
0.0000000000
  23
0.0000000000
  33
0.0000000000
  0
SOLID
  5
27
100
AcDbEntity
  8
Системный_слой
100
AcDbTrace
  10
5.0000000000
  20
-0.6582599878
  30
0.0000000000
  11
0.0000000000
  21
-0.0000000000
  31
0.0000000000
  12
4.5000000000
  22
0.0000000000
  32
0.0000000000
  13
5.0000000000
  23
-0.6582599878
  33
0.0000000000
  0
ENDBLK
  5
28
100
AcDbEntity
  8
Системный_слой
100
AcDbBlockEnd
  0
BLOCK
  5
29
100
AcDbEntity
  8
Системный_слой
100
AcDbBlockBegin
  2
K5_OUTSIDE
  70
     0
  10
0.0000000000
  20
0.0000000000
  30
0.0000000000
  0
LINE
  5
2b
100
AcDbEntity
  8
Системный_слой
100
AcDbLine
  6
K5LT_THIN
  62
     7
  10
0.0000000000
  20
0.0000000000
  30
0.0000000000
  11
-5.0000000000
  21
0.6582599878
  31
0.0000000000
  0
LINE
  5
2c
100
AcDbEntity
  8
Системный_слой
100
AcDbLine
  6
K5LT_THIN
  62
     7
  10
-5.0000000000
  20
0.6582599878
  30
0.0000000000
  11
-4.5000000000
  21
-0.0000000000
  31
0.0000000000
  0
LINE
  5
2d
100
AcDbEntity
  8
Системный_слой
100
AcDbLine
  6
K5LT_THIN
  62
     7
  10
-4.5000000000
  20
0.0000000000
  30
0.0000000000
  11
-5.0000000000
  21
-0.6582599878
  31
0.0000000000
  0
LINE
  5
2e
100
AcDbEntity
  8
Системный_слой
100
AcDbLine
  6
K5LT_THIN
  62
     7
  10
-5.0000000000
  20
-0.6582599878
  30
0.0000000000
  11
-0.0000000000
  21
-0.0000000000
  31
0.0000000000
  0
LINE
  5
2f
100
AcDbEntity
  8
Системный_слой
100
AcDbLine
  6
K5LT_THIN
  62
     7
  10
0.0000000000
  20
0.0000000000
  30
0.0000000000
  11
-7.0000000000
  21
0.0000000000
  31
0.0000000000
  0
SOLID
  5
30
100
AcDbEntity
  8
Системный_слой
100
AcDbTrace
  10
0.0000000000
  20
0.0000000000
  30
0.0000000000
  11
-5.0000000000
  21
0.6582599878
  31
0.0000000000
  12
-4.5000000000
  22
-0.0000000000
  32
0.0000000000
  13
0.0000000000
  23
0.0000000000
  33
0.0000000000
  0
SOLID
  5
31
100
AcDbEntity
  8
Системный_слой
100
AcDbTrace
  10
-5.0000000000
  20
-0.6582599878
  30
0.0000000000
  11
-0.0000000000
  21
-0.0000000000
  31
0.0000000000
  12
-4.5000000000
  22
0.0000000000
  32
0.0000000000
  13
-5.0000000000
  23
-0.6582599878
  33
0.0000000000
  0
ENDBLK
  5
32
100
AcDbEntity
  8
Системный_слой
100
AcDbBlockEnd
  0
BLOCK
  5
33
100
AcDbEntity
  8
Системный_слой
100
AcDbBlockBegin
  2
K5_DOT
  70
     0
  10
0.0000000000
  20
0.0000000000
  30
0.0000000000
  0
CIRCLE
  5
35
100
AcDbEntity
  8
Системный_слой
100
AcDbCircle
  6
K5LT_THIN
  62
     7
  10
0.0000000000
  20
0.0000000000
  30
0.0000000000
  40
2.0000000000
  0
ENDBLK
  5
36
100
AcDbEntity
  8
Системный_слой
100
AcDbBlockEnd
  0
BLOCK
  5
37
100
AcDbEntity
  8
Системный_слой
100
AcDbBlockBegin
  2
K5_OBLIQUE
  70
     0
  10
0.0000000000
  20
0.0000000000
  30
0.0000000000
  0
LINE
  5
39
100
AcDbEntity
  8
Системный_слой
100
AcDbLine
  6
K5LT_THIN
  62
     7
  10
1.0605000257
  20
1.0605000257
  30
0.0000000000
  11
-1.0605000257
  21
-1.0605000257
  31
0.0000000000
  0
LINE
  5
3a
100
AcDbEntity
  8
Системный_слой
100
AcDbLine
  6
K5LT_THIN
  62
     7
  10
0.0000000000
  20
0.0000000000
  30
0.0000000000
  11
-2.0000000000
  21
0.0000000000
  31
0.0000000000
  0
ENDBLK
  5
3b
100
AcDbEntity
  8
Системный_слой
100
AcDbBlockEnd
  0
BLOCK
  5
66
100
AcDbEntity
  8
Слой_1
100
AcDbBlockBegin
  2
*U0
  70
     1
  10
0.0000000000
  20
0.0000000000
  30
0.0000000000
  0
LINE
  5
68
100
AcDbEntity
  8
Системный_слой
100
AcDbLine
  6
K5LT_BASIC
  62
     5
  10
-133.4407613452
  20
247.7963949864
  30
0.0000000000
  11
-134.3569822633
  21
244.0225931424
  31
0.0000000000
  0
LINE
  5
69
100
AcDbEntity
  8
Системный_слой
100
AcDbLine
  6
K5LT_BASIC
  62
     5
  10
-134.3569822633
  20
244.0225931424
  30
0.0000000000
  11
-134.7451816836
  21
239.1226602364
  31
0.0000000000
  0
LINE
  5
6a
100
AcDbEntity
  8
Системный_слой
100
AcDbLine
  6
K5LT_BASIC
  62
     5
  10
-134.7451816836
  20
239.1226602364
  30
0.0000000000
  11
-135.2187451414
  21
232.2529258804
  31
0.0000000000
  0
LINE
  5
6b
100
AcDbEntity
  8
Системный_слой
100
AcDbLine
  6
K5LT_BASIC
  62
     5
  10
-135.2187451414
  20
232.2529258804
  30
0.0000000000
  11
-135.6757045709
  21
230.1028534290
  31
0.0000000000
  0
LINE
  5
6c
100
AcDbEntity
  8
Системный_слой
100
AcDbLine
  6
K5LT_BASIC
  62
     5
  10
-135.6757045709
  20
230.1028534290
  30
0.0000000000
  11
-138.4979148434
  21
222.6454382295
  31
0.0000000000
  0
LINE
  5
6d
100
AcDbEntity
  8
Системный_слой
100
AcDbLine
  6
K5LT_BASIC
  62
     5
  10
-138.4979148434
  20
222.6454382295
  30
0.0000000000
  11
-140.4932840706
  21
218.7621309132
  31
0.0000000000
  0
LINE
  5
6e
100
AcDbEntity
  8
Системный_слой
100
AcDbLine
  6
K5LT_BASIC
  62
     5
  10
-140.4932840706
  20
218.7621309132
  30
0.0000000000
  11
-144.7942508678
  21
212.4028981644
  31
0.0000000000
  0
LINE
  5
6f
100
AcDbEntity
  8
Системный_слой
100
AcDbLine
  6
K5LT_BASIC
  62
     5
  10
-144.7942508678
  20
212.4028981644
  30
0.0000000000
  11
-152.2562598554
  21
203.6644453604
  31
0.0000000000
  0
LINE
  5
70
100
AcDbEntity
  8
Системный_слой
100
AcDbLine
  6
K5LT_BASIC
  62
     5
  10
-152.2562598554
  20
203.6644453604
  30
0.0000000000
  11
-152.7016752525
  21
203.1255826140
  31
0.0000000000
  0
LINE
  5
71
100
AcDbEntity
  8
Системный_слой
100
AcDbLine
  6
K5LT_BASIC
  62
     5
  10
-152.7016752525
  20
203.1255826140
  30
0.0000000000
  11
-165.8330423640
  21
188.1260995664
  31
0.0000000000
  0
LINE
  5
72
100
AcDbEntity
  8
Системный_слой
100
AcDbLine
  6
K5LT_BASIC
  62
     5
  10
-165.8330423640
  20
188.1260995664
  30
0.0000000000
  11
-177.6814674459
  21
175.0368464382
  31
0.0000000000
  0
LINE
  5
73
100
AcDbEntity
  8
Системный_слой
100
AcDbLine
  6
K5LT_BASIC
  62
     5
  10
-177.6814674459
  20
175.0368464382
  30
0.0000000000
  11
-181.7734916547
  21
170.3802569404
  31
0.0000000000
  0
ENDBLK
  5
74
100
AcDbEntity
  8
Слой_1
100
AcDbBlockEnd
  0
BLOCK
  5
76
100
AcDbEntity
  8
Слой_1
100
AcDbBlockBegin
  2
*U1
  70
     1
  10
0.0000000000
  20
0.0000000000
  30
0.0000000000
  0
LINE
  5
78
100
AcDbEntity
  8
Системный_слой
100
AcDbLine
  6
K5LT_BASIC
  62
     5
  10
-133.7467574356
  20
247.0597921210
  30
0.0000000000
  11
-121.5398369478
  21
271.4344563599
  31
0.0000000000
  0
LINE
  5
79
100
AcDbEntity
  8
Системный_слой
100
AcDbLine
  6
K5LT_BASIC
  62
     5
  10
-121.5398369478
  20
271.4344563599
  30
0.0000000000
  11
-121.2233359842
  21
272.1171197033
  31
0.0000000000
  0
LINE
  5
7a
100
AcDbEntity
  8
Системный_слой
100
AcDbLine
  6
K5LT_BASIC
  62
     5
  10
-121.2233359842
  20
272.1171197033
  30
0.0000000000
  11
-112.3023092575
  21
292.6907023804
  31
0.0000000000
  0
LINE
  5
7b
100
AcDbEntity
  8
Системный_слой
100
AcDbLine
  6
K5LT_BASIC
  62
     5
  10
-112.3023092575
  20
292.6907023804
  30
0.0000000000
  11
-108.1161401364
  21
304.3495183971
  31
0.0000000000
  0
ENDBLK
  5
7c
100
AcDbEntity
  8
Слой_1
100
AcDbBlockEnd
  0
BLOCK
  5
7e
100
AcDbEntity
  8
Слой_1
100
AcDbBlockBegin
  2
*U2
  70
     1
  10
0.0000000000
  20
0.0000000000
  30
0.0000000000
  0
LINE
  5
80
100
AcDbEntity
  8
Системный_слой
100
AcDbLine
  6
K5LT_BASIC
  62
     5
  10
-133.7467574356
  20
247.0597921210
  30
0.0000000000
  11
-121.5398369478
  21
271.4344563599
  31
0.0000000000
  0
LINE
  5
81
100
AcDbEntity
  8
Системный_слой
100
AcDbLine
  6
K5LT_BASIC
  62
     5
  10
-121.5398369478
  20
271.4344563599
  30
0.0000000000
  11
-121.2233359842
  21
272.1171197033
  31
0.0000000000
  0
LINE
  5
82
100
AcDbEntity
  8
Системный_слой
100
AcDbLine
  6
K5LT_BASIC
  62
     5
  10
-121.2233359842
  20
272.1171197033
  30
0.0000000000
  11
-112.3023092575
  21
292.6907023804
  31
0.0000000000
  0
LINE
  5
83
100
AcDbEntity
  8
Системный_слой
100
AcDbLine
  6
K5LT_BASIC
  62
     5
  10
-112.3023092575
  20
292.6907023804
  30
0.0000000000
  11
-108.1161401364
  21
304.3495183971
  31
0.0000000000
  0
ENDBLK
  5
84
100
AcDbEntity
  8
Слой_1
100
AcDbBlockEnd
  0
BLOCK
  5
8e
100
AcDbEntity
  8
Слой_1
100
AcDbBlockBegin
  2
*U3
  70
     1
  10
0.0000000000
  20
0.0000000000
  30
0.0000000000
  0
LINE
  5
90
100
AcDbEntity
  8
Системный_слой
100
AcDbLine
  6
K5LT_BASIC
  62
     5
  10
-181.9709527431
  20
223.0984333298
  30
0.0000000000
  11
-192.2677306106
  21
205.9479660157
  31
0.0000000000
  0
LINE
  5
91
100
AcDbEntity
  8
Системный_слой
100
AcDbLine
  6
K5LT_BASIC
  62
     5
  10
-204.4652580782
  20
185.3822595138
  30
0.0000000000
  11
-212.8008097567
  21
171.6090454805
  31
0.0000000000
  0
ENDBLK
  5
92
100
AcDbEntity
  8
Слой_1
100
AcDbBlockEnd
  0
BLOCK
  5
af
100
AcDbEntity
  8
Слой_1
100
AcDbBlockBegin
  2
*U4
  70
     1
  10
0.0000000000
  20
0.0000000000
  30
0.0000000000
  0
LINE
  5
b1
100
AcDbEntity
  8
Системный_слой
100
AcDbLine
  6
K5LT_BASIC
  62
     5
  10
-138.7567508708
  20
89.0365684015
  30
0.0000000000
  11
-140.8310110352
  21
85.7535079544
  31
0.0000000000
  0
LINE
  5
b2
100
AcDbEntity
  8
Системный_слой
100
AcDbLine
  6
K5LT_BASIC
  62
     5
  10
-140.8310110352
  20
85.7535079544
  30
0.0000000000
  11
-142.8654745216
  21
80.9612450033
  31
0.0000000000
  0
LINE
  5
b3
100
AcDbEntity
  8
Системный_слой
100
AcDbLine
  6
K5LT_BASIC
  62
     5
  10
-142.8654745216
  20
80.9612450033
  30
0.0000000000
  11
-145.6016522113
  21
74.5195211806
  31
0.0000000000
  0
LINE
  5
b4
100
AcDbEntity
  8
Системный_слой
100
AcDbLine
  6
K5LT_BASIC
  62
     5
  10
-145.6016522113
  20
74.5195211806
  30
0.0000000000
  11
-146.5292626312
  21
72.9852617569
  31
0.0000000000
  0
LINE
  5
b5
100
AcDbEntity
  8
Системный_слой
100
AcDbLine
  6
K5LT_BASIC
  62
     5
  10
-146.5292626312
  20
72.9852617569
  30
0.0000000000
  11
-151.5843930863
  21
66.8234319979
  31
0.0000000000
  0
LINE
  5
b6
100
AcDbEntity
  8
Системный_слой
100
AcDbLine
  6
K5LT_BASIC
  62
     5
  10
-151.5843930863
  20
66.8234319979
  30
0.0000000000
  11
-154.7186269906
  21
63.7789937396
  31
0.0000000000
  0
LINE
  5
b7
100
AcDbEntity
  8
Системный_слой
100
AcDbLine
  6
K5LT_BASIC
  62
     5
  10
-154.7186269906
  20
63.7789937396
  30
0.0000000000
  11
-160.8026096543
  21
59.1433067728
  31
0.0000000000
  0
LINE
  5
b8
100
AcDbEntity
  8
Системный_слой
100
AcDbLine
  6
K5LT_BASIC
  62
     5
  10
-160.8026096543
  20
59.1433067728
  30
0.0000000000
  11
-170.6641257131
  21
53.2482984882
  31
0.0000000000
  0
LINE
  5
b9
100
AcDbEntity
  8
Системный_слой
100
AcDbLine
  6
K5LT_BASIC
  62
     5
  10
-170.6641257131
  20
53.2482984882
  30
0.0000000000
  11
-171.2841122655
  21
52.8642717748
  31
0.0000000000
  0
LINE
  5
ba
100
AcDbEntity
  8
Системный_слой
100
AcDbLine
  6
K5LT_BASIC
  62
     5
  10
-171.2841122655
  20
52.8642717748
  30
0.0000000000
  11
-188.5205636187
  21
42.8481827846
  31
0.0000000000
  0
LINE
  5
bb
100
AcDbEntity
  8
Системный_слой
100
AcDbLine
  6
K5LT_BASIC
  62
     5
  10
-188.5205636187
  20
42.8481827846
  30
0.0000000000
  11
-203.9308566247
  21
34.2321167538
  31
0.0000000000
  0
LINE
  5
bc
100
AcDbEntity
  8
Системный_слой
100
AcDbLine
  6
K5LT_BASIC
  62
     5
  10
-203.9308566247
  20
34.2321167538
  30
0.0000000000
  11
-209.2964970195
  21
31.1275409325
  31
0.0000000000
  0
ENDBLK
  5
bd
100
AcDbEntity
  8
Слой_1
100
AcDbBlockEnd
  0
BLOCK
  5
bf
100
AcDbEntity
  8
Слой_1
100
AcDbBlockBegin
  2
*U5
  70
     1
  10
0.0000000000
  20
0.0000000000
  30
0.0000000000
  0
LINE
  5
c1
100
AcDbEntity
  8
Системный_слой
100
AcDbLine
  6
K5LT_BASIC
  62
     5
  10
-139.2821138953
  20
88.4363925264
  30
0.0000000000
  11
-119.9253565809
  21
107.6314208103
  31
0.0000000000
  0
LINE
  5
c2
100
AcDbEntity
  8
Системный_слой
100
AcDbLine
  6
K5LT_BASIC
  62
     5
  10
-119.9253565809
  20
107.6314208103
  30
0.0000000000
  11
-119.4072784697
  21
108.1771287645
  31
0.0000000000
  0
LINE
  5
c3
100
AcDbEntity
  8
Системный_слой
100
AcDbLine
  6
K5LT_BASIC
  62
     5
  10
-119.4072784697
  20
108.1771287645
  30
0.0000000000
  11
-104.3788926716
  21
124.8205852063
  31
0.0000000000
  0
LINE
  5
c4
100
AcDbEntity
  8
Системный_слой
100
AcDbLine
  6
K5LT_BASIC
  62
     5
  10
-104.3788926716
  20
124.8205852063
  30
0.0000000000
  11
-96.6861623486
  21
134.5300601148
  31
0.0000000000
  0
ENDBLK
  5
c5
100
AcDbEntity
  8
Слой_1
100
AcDbBlockEnd
  0
BLOCK
  5
c7
100
AcDbEntity
  8
Слой_1
100
AcDbBlockBegin
  2
*U6
  70
     1
  10
0.0000000000
  20
0.0000000000
  30
0.0000000000
  0
LINE
  5
c9
100
AcDbEntity
  8
Системный_слой
100
AcDbLine
  6
K5LT_BASIC
  62
     5
  10
-139.2821138953
  20
88.4363925264
  30
0.0000000000
  11
-119.9253565809
  21
107.6314208103
  31
0.0000000000
  0
LINE
  5
ca
100
AcDbEntity
  8
Системный_слой
100
AcDbLine
  6
K5LT_BASIC
  62
     5
  10
-119.9253565809
  20
107.6314208103
  30
0.0000000000
  11
-119.4072784697
  21
108.1771287645
  31
0.0000000000
  0
LINE
  5
cb
100
AcDbEntity
  8
Системный_слой
100
AcDbLine
  6
K5LT_BASIC
  62
     5
  10
-119.4072784697
  20
108.1771287645
  30
0.0000000000
  11
-104.3788926716
  21
124.8205852063
  31
0.0000000000
  0
LINE
  5
cc
100
AcDbEntity
  8
Системный_слой
100
AcDbLine
  6
K5LT_BASIC
  62
     5
  10
-104.3788926716
  20
124.8205852063
  30
0.0000000000
  11
-96.6861623486
  21
134.5300601148
  31
0.0000000000
  0
ENDBLK
  5
cd
100
AcDbEntity
  8
Слой_1
100
AcDbBlockEnd
  0
BLOCK
  5
d0
100
AcDbEntity
  8
Слой_1
100
AcDbBlockBegin
  2
*U7
  70
     1
  10
0.0000000000
  20
0.0000000000
  30
0.0000000000
  0
LINE
  5
d2
100
AcDbEntity
  8
Системный_слой
100
AcDbLine
  6
K5LT_BASIC
  62
     5
  10
-192.6350915982
  20
81.1439650559
  30
0.0000000000
  11
-207.8730623586
  21
68.1837794612
  31
0.0000000000
  0
ENDBLK
  5
d3
100
AcDbEntity
  8
Слой_1
100
AcDbBlockEnd
  0
BLOCK
  5
da
100
AcDbEntity
  8
Слой_1
100
AcDbBlockBegin
  2
*U8
  70
     1
  10
0.0000000000
  20
0.0000000000
  30
0.0000000000
  0
LINE
  5
dc
100
AcDbEntity
  8
Системный_слой
100
AcDbLine
  6
K5LT_BASIC
  62
     5
  10
-271.4436663771
  20
193.4412328150
  30
0.0000000000
  11
-271.0400015039
  21
173.3902980709
  31
0.0000000000
  0
ENDBLK
  5
dd
100
AcDbEntity
  8
Слой_1
100
AcDbBlockEnd
  0
BLOCK
  5
df
100
AcDbEntity
  8
Слой_1
100
AcDbBlockBegin
  2
*U9
  70
     1
  10
0.0000000000
  20
0.0000000000
  30
0.0000000000
  0
LINE
  5
e1
100
AcDbEntity
  8
Системный_слой
100
AcDbLine
  6
K5LT_BASIC
  62
     5
  10
-267.0438486723
  20
173.5928455059
  30
0.0000000000
  11
-266.4336487882
  21
149.6782908046
  31
0.0000000000
  0
ENDBLK
  5
e2
100
AcDbEntity
  8
Слой_1
100
AcDbBlockEnd
  0
BLOCK
  5
e4
100
AcDbEntity
  8
Слой_1
100
AcDbBlockBegin
  2
*U10
  70
     1
  10
0.0000000000
  20
0.0000000000
  30
0.0000000000
  0
LINE
  5
e6
100
AcDbEntity
  8
Системный_слой
100
AcDbLine
  6
K5LT_BASIC
  62
     5
  10
-270.4306359220
  20
149.4990410315
  30
0.0000000000
  11
-270.1642975330
  21
133.4543509719
  31
0.0000000000
  0
ENDBLK
  5
e7
100
AcDbEntity
  8
Слой_1
100
AcDbBlockEnd
  0
ENDSEC
  0
SECTION
  2
ENTITIES
  0
LINE
  5
3e
100
AcDbEntity
  8
Слой_1
100
AcDbLine
  6
K5LT_BASIC
  62
     5
  10
-48.5067028616
  20
313.1139948055
  30
0.0000000000
  11
-74.4319167754
  21
313.1139948055
  31
0.0000000000
  0
LINE
  5
40
100
AcDbEntity
  8
Слой_1
100
AcDbLine
  6
K5LT_BASIC
  62
     5
  10
-74.4319167754
  20
257.2761499303
  30
0.0000000000
  11
-172.1008328614
  21
167.1118694704
  31
0.0000000000
  0
LINE
  5
41
100
AcDbEntity
  8
Слой_1
100
AcDbLine
  6
K5LT_BASIC
  62
     5
  10
-172.1008328614
  20
167.1118694704
  30
0.0000000000
  11
-172.1008328614
  21
132.6627570260
  31
0.0000000000
  0
LINE
  5
42
100
AcDbEntity
  8
Слой_1
100
AcDbLine
  6
K5LT_BASIC
  62
     5
  10
-172.1008328614
  20
132.6627570260
  30
0.0000000000
  11
-74.4319167754
  21
153.8622108379
  31
0.0000000000
  0
LINE
  5
43
100
AcDbEntity
  8
Слой_1
100
AcDbLine
  6
K5LT_BASIC
  62
     5
  10
-74.4319167754
  20
81.0117761130
  30
0.0000000000
  11
-48.5067028616
  21
81.0117761130
  31
0.0000000000
  0
LINE
  5
44
100
AcDbEntity
  8
Слой_1
100
AcDbLine
  6
K5LT_BASIC
  62
     5
  10
27.8427009509
  20
310.9387624641
  30
0.0000000000
  11
79.3270887799
  21
230.3051256437
  31
0.0000000000
  0
LINE
  5
45
100
AcDbEntity
  8
Слой_1
100
AcDbLine
  6
K5LT_BASIC
  62
     5
  10
79.3270887799
  20
230.3051256437
  30
0.0000000000
  11
71.9451042667
  21
218.5136459949
  31
0.0000000000
  0
LINE
  5
46
100
AcDbEntity
  8
Слой_1
100
AcDbLine
  6
K5LT_BASIC
  62
     5
  10
71.9451042667
  20
218.5136459949
  30
0.0000000000
  11
28.1301007846
  21
225.3049715346
  31
0.0000000000
  0
LINE
  5
47
100
AcDbEntity
  8
Слой_1
100
AcDbLine
  6
K5LT_BASIC
  62
     5
  10
28.1301007846
  20
225.3049715346
  30
0.0000000000
  11
27.8427009509
  21
310.9387624641
  31
0.0000000000
  0
LINE
  5
48
100
AcDbEntity
  8
Слой_1
100
AcDbLine
  6
K5LT_BASIC
  62
     5
  10
-74.4319167754
  20
133.7970117999
  30
0.0000000000
  11
-131.0712799267
  21
67.2188354535
  31
0.0000000000
  0
LINE
  5
49
100
AcDbEntity
  8
Слой_1
100
AcDbLine
  6
K5LT_BASIC
  62
     5
  10
-131.0712799267
  20
67.2188354535
  30
0.0000000000
  11
-120.6746306717
  21
51.0397627679
  31
0.0000000000
  0
LINE
  5
4a
100
AcDbEntity
  8
Слой_1
100
AcDbLine
  6
K5LT_BASIC
  62
     5
  10
-120.6746306717
  20
51.0397627679
  30
0.0000000000
  11
-81.1813080132
  21
70.0774015051
  31
0.0000000000
  0
LINE
  5
4b
100
AcDbEntity
  8
Слой_1
100
AcDbLine
  6
K5LT_BASIC
  62
     5
  10
-81.1813080132
  20
70.0774015051
  30
0.0000000000
  11
-74.4319167754
  21
81.0117761130
  31
0.0000000000
  0
SPLINE
  210
0.0000000000
  220
0.0000000000
  230
-1.0000000000
  5
4c
100
AcDbEntity
  8
Слой_1
100
AcDbSpline
  6
K5LT_BASIC
  62
     5
  70
     8
  71
     1
  72
     4
  73
     2
  40
0.0000000000
  40
0.0000000000
  40
8.7239995817
  40
8.7239995817
  10
-74.4319167754
  20
153.8622108379
  30
0.0000000000
  10
-74.4319167754
  20
133.7970117999
  30
0.0000000000
  0
LINE
  5
4d
100
AcDbEntity
  8
Слой_1
100
AcDbLine
  6
K5LT_BASIC
  62
     5
  10
-44.5067028616
  20
313.1139948055
  30
0.0000000000
  11
-18.5814889478
  21
313.1139948055
  31
0.0000000000
  0
LINE
  5
4e
100
AcDbEntity
  8
Слой_1
100
AcDbLine
  6
K5LT_BASIC
  62
     5
  10
-18.5814889478
  20
257.2761499303
  30
0.0000000000
  11
79.0874271382
  21
167.1118694704
  31
0.0000000000
  0
LINE
  5
4f
100
AcDbEntity
  8
Слой_1
100
AcDbLine
  6
K5LT_BASIC
  62
     5
  10
79.0874271382
  20
167.1118694704
  30
0.0000000000
  11
79.0874271382
  21
132.6627570260
  31
0.0000000000
  0
LINE
  5
50
100
AcDbEntity
  8
Слой_1
100
AcDbLine
  6
K5LT_BASIC
  62
     5
  10
79.0874271382
  20
132.6627570260
  30
0.0000000000
  11
-18.5814889478
  21
153.8622108379
  31
0.0000000000
  0
LINE
  5
51
100
AcDbEntity
  8
Слой_1
100
AcDbLine
  6
K5LT_BASIC
  62
     5
  10
-18.5814889478
  20
81.0117761130
  30
0.0000000000
  11
-44.5067028616
  21
81.0117761130
  31
0.0000000000
  0
LINE
  5
52
100
AcDbEntity
  8
Слой_1
100
AcDbLine
  6
K5LT_BASIC
  62
     5
  10
-18.5814889478
  20
133.7970117999
  30
0.0000000000
  11
38.0578742035
  21
67.2188354535
  31
0.0000000000
  0
LINE
  5
53
100
AcDbEntity
  8
Слой_1
100
AcDbLine
  6
K5LT_BASIC
  62
     5
  10
38.0578742035
  20
67.2188354535
  30
0.0000000000
  11
27.6612249485
  21
51.0397627679
  31
0.0000000000
  0
LINE
  5
54
100
AcDbEntity
  8
Слой_1
100
AcDbLine
  6
K5LT_BASIC
  62
     5
  10
27.6612249485
  20
51.0397627679
  30
0.0000000000
  11
-11.8320977100
  21
70.0774015051
  31
0.0000000000
  0
LINE
  5
55
100
AcDbEntity
  8
Слой_1
100
AcDbLine
  6
K5LT_BASIC
  62
     5
  10
-11.8320977100
  20
70.0774015051
  30
0.0000000000
  11
-18.5814889478
  21
81.0117761130
  31
0.0000000000
  0
SPLINE
  210
0.0000000000
  220
0.0000000000
  230
-1.0000000000
  5
56
100
AcDbEntity
  8
Слой_1
100
AcDbSpline
  6
K5LT_BASIC
  62
     5
  70
     8
  71
     1
  72
     4
  73
     2
  40
0.0000000000
  40
0.0000000000
  40
8.7239995817
  40
8.7239995817
  10
-18.5814889478
  20
153.8622108379
  30
0.0000000000
  10
-18.5814889478
  20
133.7970117999
  30
0.0000000000
  0
POLYLINE
  5
57
100
AcDbEntity
  8
Слой_1
100
AcDb2dPolyline
  6
K5LT_BASIC
  62
     5
  66
     1
  10
0.0000000000
  20
0.0000000000
  30
0.0000000000
  0
VERTEX
  5
58
100
AcDbEntity
  8
Слой_1
100
AcDbVertex
  100
AcDb2dVertex
  10
-119.6168596517
  20
310.6766152312
  30
0.0000000000
  42
0.0000000000
  0
VERTEX
  5
59
100
AcDbEntity
  8
Слой_1
100
AcDbVertex
  100
AcDb2dVertex
  10
-131.0577481105
  20
298.8303938567
  30
0.0000000000
  42
0.0000000000
  0
VERTEX
  5
5a
100
AcDbEntity
  8
Слой_1
100
AcDbVertex
  100
AcDb2dVertex
  10
-144.5575218649
  20
283.2988723509
  30
0.0000000000
  42
0.0000000000
  0
VERTEX
  5
5b
100
AcDbEntity
  8
Слой_1
100
AcDbVertex
  100
AcDb2dVertex
  10
-148.0246876312
  20
279.1092959228
  30
0.0000000000
  42
0.0000000000
  0
VERTEX
  5
5c
100
AcDbEntity
  8
Слой_1
100
AcDbVertex
  100
AcDb2dVertex
  10
-161.4344338117
  20
261.6690004733
  30
0.0000000000
  42
0.0000000000
  0
VERTEX
  5
5d
100
AcDbEntity
  8
Слой_1
100
AcDbVertex
  100
AcDb2dVertex
  10
-175.5762493004
  20
240.8517776595
  30
0.0000000000
  42
0.0000000000
  0
VERTEX
  5
5e
100
AcDbEntity
  8
Слой_1
100
AcDbVertex
  100
AcDb2dVertex
  10
-185.3584757827
  20
225.2261593442
  30
0.0000000000
  0
SEQEND
  5
5f
100
AcDbEntity
  8
Слой_1
  0
LINE
  5
60
100
AcDbEntity
  8
Слой_1
100
AcDbLine
  6
K5LT_BASIC
  62
     5
  10
-256.9670746226
  20
57.6425168946
  30
0.0000000000
  11
-184.7804486989
  21
173.0180987353
  31
0.0000000000
  0
LINE
  5
61
100
AcDbEntity
  8
Слой_1
100
AcDbLine
  6
K5LT_BASIC
  62
     5
  10
-48.5067028616
  20
247.1087158387
  30
0.0000000000
  11
-48.5067028616
  21
313.1139948055
  31
0.0000000000
  0
LINE
  5
62
100
AcDbEntity
  8
Слой_1
100
AcDbLine
  6
K5LT_BASIC
  62
     5
  10
-44.5067028616
  20
247.1087158387
  30
0.0000000000
  11
-44.5067028616
  21
313.1139948055
  31
0.0000000000
  0
LINE
  5
63
100
AcDbEntity
  8
Слой_1
100
AcDbLine
  6
K5LT_BASIC
  62
     5
  10
-48.5067028616
  20
247.1087158387
  30
0.0000000000
  11
-44.5067028616
  21
247.1087158387
  31
0.0000000000
  0
LINE
  5
64
100
AcDbEntity
  8
Слой_1
100
AcDbLine
  6
K5LT_DASHED
  62
     7
  10
-46.5067028616
  20
313.1139948055
  30
0.0000000000
  11
-46.5067028616
  21
81.0117761130
  31
0.0000000000
  0
INSERT
  5
75
100
AcDbEntity
  8
Слой_1
100
AcDbBlockReference
  2
*U0
  10
0.0000000000
  20
0.0000000000
  30
0.0000000000
  41
1.0000000000
  42
1.0000000000
  43
1.0000000000
  50
0.0000000000
  0
INSERT
  5
7d
100
AcDbEntity
  8
Слой_1
100
AcDbBlockReference
  2
*U1
  10
0.0000000000
  20
0.0000000000
  30
0.0000000000
  41
1.0000000000
  42
1.0000000000
  43
1.0000000000
  50
0.0000000000
  0
INSERT
  5
85
100
AcDbEntity
  8
Слой_1
100
AcDbBlockReference
  2
*U2
  10
0.0000000000
  20
0.0000000000
  30
0.0000000000
  41
1.0000000000
  42
1.0000000000
  43
1.0000000000
  50
0.0000000000
  0
LINE
  5
86
100
AcDbEntity
  8
Слой_1
100
AcDbLine
  6
K5LT_BASIC
  62
     5
  10
-119.6168596517
  20
310.6766152312
  30
0.0000000000
  11
-108.1161401364
  21
304.3495183971
  31
0.0000000000
  0
LINE
  5
87
100
AcDbEntity
  8
Слой_1
100
AcDbLine
  6
K5LT_BASIC
  62
     5
  10
-181.7734916547
  20
170.3802569404
  30
0.0000000000
  11
-184.7804486989
  21
173.0180987353
  31
0.0000000000
  0
LINE
  5
88
100
AcDbEntity
  8
Слой_1
100
AcDbLine
  6
K5LT_BASIC
  62
     5
  10
-48.5067028616
  20
81.0117761130
  30
0.0000000000
  11
-48.5067028616
  21
111.0117761130
  31
0.0000000000
  0
LINE
  5
89
100
AcDbEntity
  8
Слой_1
100
AcDbLine
  6
K5LT_BASIC
  62
     5
  10
-44.5067028616
  20
81.0117761130
  30
0.0000000000
  11
-44.5067028616
  21
111.0117761130
  31
0.0000000000
  0
LINE
  5
8a
100
AcDbEntity
  8
Слой_1
100
AcDbLine
  6
K5LT_BASIC
  62
     5
  10
-44.5067028616
  20
111.0117761130
  30
0.0000000000
  11
-48.5067028616
  21
111.0117761130
  31
0.0000000000
  0
LINE
  5
8b
100
AcDbEntity
  8
Слой_1
100
AcDbLine
  6
K5LT_BASIC
  62
     5
  10
-269.4917601831
  20
30.0829592519
  30
0.0000000000
  11
-253.5798141808
  21
55.5149558960
  31
0.0000000000
  0
LINE
  5
8c
100
AcDbEntity
  8
Слой_1
100
AcDbLine
  6
K5LT_BASIC
  62
     5
  10
-253.5798141808
  20
55.5149558960
  30
0.0000000000
  11
-256.9670746226
  21
57.6425168946
  31
0.0000000000
  0
LINE
  5
8d
100
AcDbEntity
  8
Слой_1
100
AcDbLine
  6
K5LT_BASIC
  62
     5
  10
-292.8559308428
  20
45.0942536286
  30
0.0000000000
  11
-269.4917601831
  21
30.0829592519
  31
0.0000000000
  0
INSERT
  5
93
100
AcDbEntity
  8
Слой_1
100
AcDbBlockReference
  2
*U3
  10
0.0000000000
  20
0.0000000000
  30
0.0000000000
  41
1.0000000000
  42
1.0000000000
  43
1.0000000000
  50
0.0000000000
  0
LINE
  5
94
100
AcDbEntity
  8
Слой_1
100
AcDbLine
  6
K5LT_BASIC
  62
     5
  10
-195.6560720330
  20
208.0762059859
  30
0.0000000000
  11
-192.2677306105
  21
205.9479660159
  31
0.0000000000
  0
LINE
  5
95
100
AcDbEntity
  8
Слой_1
100
AcDbLine
  6
K5LT_BASIC
  62
     5
  10
-207.8533639100
  20
187.5103515079
  30
0.0000000000
  11
-204.4652580782
  21
185.3822595138
  31
0.0000000000
  0
LINE
  5
96
100
AcDbEntity
  8
Слой_1
100
AcDbLine
  6
K5LT_BASIC
  62
     5
  10
-216.1882127621
  20
173.7366960264
  30
0.0000000000
  11
-212.8008097567
  21
171.6090454805
  31
0.0000000000
  0
POLYLINE
  5
97
100
AcDbEntity
  8
Слой_1
100
AcDb2dPolyline
  6
K5LT_BASIC
  62
     5
  66
     1
  10
0.0000000000
  20
0.0000000000
  30
0.0000000000
  0
VERTEX
  5
98
100
AcDbEntity
  8
Слой_1
100
AcDbVertex
  100
AcDb2dVertex
  10
-216.1882127612
  20
173.7366960279
  30
0.0000000000
  42
0.0000000000
  0
VERTEX
  5
99
100
AcDbEntity
  8
Слой_1
100
AcDbVertex
  100
AcDb2dVertex
  10
-224.5534426198
  20
160.4381752018
  30
0.0000000000
  42
0.0000000000
  0
VERTEX
  5
9a
100
AcDbEntity
  8
Слой_1
100
AcDbVertex
  100
AcDb2dVertex
  10
-241.4843886007
  20
135.1729473407
  30
0.0000000000
  42
0.0000000000
  0
VERTEX
  5
9b
100
AcDbEntity
  8
Слой_1
100
AcDbVertex
  100
AcDb2dVertex
  10
-265.8716458590
  20
97.9158767949
  30
0.0000000000
  42
0.0000000000
  0
VERTEX
  5
9c
100
AcDbEntity
  8
Слой_1
100
AcDbVertex
  100
AcDb2dVertex
  10
-273.5563711379
  20
84.4532418773
  30
0.0000000000
  42
0.0000000000
  0
VERTEX
  5
9d
100
AcDbEntity
  8
Слой_1
100
AcDbVertex
  100
AcDb2dVertex
  10
-287.2204830947
  20
57.3946812119
  30
0.0000000000
  42
0.0000000000
  0
VERTEX
  5
9e
100
AcDbEntity
  8
Слой_1
100
AcDbVertex
  100
AcDb2dVertex
  10
-292.8559308428
  20
45.0942536286
  30
0.0000000000
  0
SEQEND
  5
9f
100
AcDbEntity
  8
Слой_1
  0
POLYLINE
  5
a0
100
AcDbEntity
  8
Слой_1
100
AcDb2dPolyline
  6
K5LT_BASIC
  62
     5
  66
     1
  10
0.0000000000
  20
0.0000000000
  30
0.0000000000
  0
VERTEX
  5
a1
100
AcDbEntity
  8
Слой_1
100
AcDbVertex
  100
AcDb2dVertex
  10
-195.6560720331
  20
208.0762059858
  30
0.0000000000
  42
0.0000000000
  0
VERTEX
  5
a2
100
AcDbEntity
  8
Слой_1
100
AcDbVertex
  100
AcDb2dVertex
  10
-207.8533639099
  20
187.5103515081
  30
0.0000000000
  0
SEQEND
  5
a3
100
AcDbEntity
  8
Слой_1
  0
LINE
  5
a4
100
AcDbEntity
  8
Слой_1
100
AcDbLine
  6
K5LT_BASIC
  62
     5
  10
-271.0425679089
  20
173.4916305553
  30
0.0000000000
  11
-267.0412852440
  21
173.4916305552
  31
0.0000000000
  0
LINE
  5
a5
100
AcDbEntity
  8
Слой_1
100
AcDbLine
  6
K5LT_BASIC
  62
     5
  10
-270.4326424400
  20
149.5885702812
  30
0.0000000000
  11
-266.4316379834
  21
149.5885702810
  31
0.0000000000
  0
POLYLINE
  5
a6
100
AcDbEntity
  8
Слой_1
100
AcDb2dPolyline
  6
K5LT_BASIC
  62
     5
  66
     1
  10
0.0000000000
  20
0.0000000000
  30
0.0000000000
  0
VERTEX
  5
a7
100
AcDbEntity
  8
Слой_1
100
AcDbVertex
  100
AcDb2dVertex
  10
-105.5616006777
  20
144.2009079672
  30
0.0000000000
  42
0.0000000000
  0
VERTEX
  5
a8
100
AcDbEntity
  8
Слой_1
100
AcDbVertex
  100
AcDb2dVertex
  10
-120.1884629544
  20
136.6324345731
  30
0.0000000000
  42
0.0000000000
  0
VERTEX
  5
a9
100
AcDbEntity
  8
Слой_1
100
AcDbVertex
  100
AcDb2dVertex
  10
-137.9440367620
  20
126.2299516739
  30
0.0000000000
  42
0.0000000000
  0
VERTEX
  5
aa
100
AcDbEntity
  8
Слой_1
100
AcDbVertex
  100
AcDb2dVertex
  10
-142.5683346306
  20
123.3681937666
  30
0.0000000000
  42
0.0000000000
  0
VERTEX
  5
ab
100
AcDbEntity
  8
Слой_1
100
AcDbVertex
  100
AcDb2dVertex
  10
-160.8486386880
  20
111.1282721345
  30
0.0000000000
  42
0.0000000000
  0
VERTEX
  5
ac
100
AcDbEntity
  8
Слой_1
100
AcDbVertex
  100
AcDb2dVertex
  10
-180.9018698869
  20
95.9224959465
  30
0.0000000000
  42
0.0000000000
  0
VERTEX
  5
ad
100
AcDbEntity
  8
Слой_1
100
AcDbVertex
  100
AcDb2dVertex
  10
-195.1649400351
  20
84.2427385588
  30
0.0000000000
  0
SEQEND
  5
ae
100
AcDbEntity
  8
Слой_1
  0
INSERT
  5
be
100
AcDbEntity
  8
Слой_1
100
AcDbBlockReference
  2
*U4
  10
0.0000000000
  20
0.0000000000
  30
0.0000000000
  41
1.0000000000
  42
1.0000000000
  43
1.0000000000
  50
0.0000000000
  0
INSERT
  5
c6
100
AcDbEntity
  8
Слой_1
100
AcDbBlockReference
  2
*U5
  10
0.0000000000
  20
0.0000000000
  30
0.0000000000
  41
1.0000000000
  42
1.0000000000
  43
1.0000000000
  50
0.0000000000
  0
INSERT
  5
ce
100
AcDbEntity
  8
Слой_1
100
AcDbBlockReference
  2
*U6
  10
0.0000000000
  20
0.0000000000
  30
0.0000000000
  41
1.0000000000
  42
1.0000000000
  43
1.0000000000
  50
0.0000000000
  0
LINE
  5
cf
100
AcDbEntity
  8
Слой_1
100
AcDbLine
  6
K5LT_BASIC
  62
     5
  10
-105.5616006777
  20
144.2009079672
  30
0.0000000000
  11
-96.6861623486
  21
134.5300601148
  31
0.0000000000
  0
INSERT
  5
d4
100
AcDbEntity
  8
Слой_1
100
AcDbBlockReference
  2
*U7
  10
0.0000000000
  20
0.0000000000
  30
0.0000000000
  41
1.0000000000
  42
1.0000000000
  43
1.0000000000
  50
0.0000000000
  0
LINE
  5
d5
100
AcDbEntity
  8
Слой_1
100
AcDbLine
  6
K5LT_BASIC
  62
     5
  10
-195.1649400350
  20
84.2427385589
  30
0.0000000000
  11
-192.6350915980
  21
81.1439650561
  31
0.0000000000
  0
LINE
  5
d6
100
AcDbEntity
  8
Слой_1
100
AcDbLine
  6
K5LT_BASIC
  62
     5
  10
-211.3027077564
  20
34.5880493459
  30
0.0000000000
  11
-177.3447022438
  21
62.4107544525
  31
0.0000000000
  0
LINE
  5
d7
100
AcDbEntity
  8
Слой_1
100
AcDbLine
  6
K5LT_BASIC
  62
     5
  10
-174.8135261974
  20
59.3134696417
  30
0.0000000000
  11
-208.7767759031
  21
31.4864678270
  31
0.0000000000
  0
LINE
  5
d8
100
AcDbEntity
  8
Слой_1
100
AcDbLine
  6
K5LT_BASIC
  62
     5
  10
-177.3447022438
  20
62.4107544525
  30
0.0000000000
  11
-174.8135261974
  21
59.3134696417
  31
0.0000000000
  0
LINE
  5
d9
100
AcDbEntity
  8
Слой_1
100
AcDbLine
  6
K5LT_BASIC
  62
     5
  10
-207.8730623586
  20
68.1837794612
  30
0.0000000000
  11
-211.3027077564
  21
34.5880493459
  31
0.0000000000
  0
INSERT
  5
de
100
AcDbEntity
  8
Слой_1
100
AcDbBlockReference
  2
*U8
  10
0.0000000000
  20
0.0000000000
  30
0.0000000000
  41
1.0000000000
  42
1.0000000000
  43
1.0000000000
  50
0.0000000000
  0
INSERT
  5
e3
100
AcDbEntity
  8
Слой_1
100
AcDbBlockReference
  2
*U9
  10
0.0000000000
  20
0.0000000000
  30
0.0000000000
  41
1.0000000000
  42
1.0000000000
  43
1.0000000000
  50
0.0000000000
  0
INSERT
  5
e8
100
AcDbEntity
  8
Слой_1
100
AcDbBlockReference
  2
*U10
  10
0.0000000000
  20
0.0000000000
  30
0.0000000000
  41
1.0000000000
  42
1.0000000000
  43
1.0000000000
  50
0.0000000000
  0
LINE
  5
e9
100
AcDbEntity
  8
Слой_1
100
AcDbLine
  6
K5LT_BASIC
  62
     5
  10
-243.3015228959
  20
215.5873778145
  30
0.0000000000
  11
-271.4443001599
  21
193.4916305534
  31
0.0000000000
  0
LINE
  5
ea
100
AcDbEntity
  8
Слой_1
100
AcDbLine
  6
K5LT_BASIC
  62
     5
  10
-243.2037148537
  20
159.7560043726
  30
0.0000000000
  11
-270.1646457497
  21
133.4916305571
  31
0.0000000000
  0
LINE
  5
eb
100
AcDbEntity
  8
Слой_1
100
AcDbLine
  6
K5LT_BASIC
  62
     5
  10
-70.4319167754
  20
257.2761499303
  30
0.0000000000
  11
-70.4319167754
  21
283.6178913156
  31
0.0000000000
  0
LINE
  5
ec
100
AcDbEntity
  8
Слой_1
100
AcDbLine
  6
K5LT_BASIC
  62
     5
  10
-22.5814889478
  20
257.2761499303
  30
0.0000000000
  11
-22.5814889478
  21
283.6178913156
  31
0.0000000000
  0
LINE
  5
ed
100
AcDbEntity
  8
Слой_1
100
AcDbLine
  6
K5LT_BASIC
  62
     5
  10
-239.2035602492
  20
159.6712557958
  30
0.0000000000
  11
-239.2497007169
  21
186.0094343641
  31
0.0000000000
  0
LINE
  5
ee
100
AcDbEntity
  8
Слой_1
100
AcDbLine
  6
K5LT_BASIC
  62
     5
  10
-22.5814889478
  20
283.6178913156
  30
0.0000000000
  11
-18.5814889478
  21
283.6178913156
  31
0.0000000000
  0
LINE
  5
ef
100
AcDbEntity
  8
Слой_1
100
AcDbLine
  6
K5LT_BASIC
  62
     5
  10
-22.5814889478
  20
257.2761499303
  30
0.0000000000
  11
-18.5814889478
  21
257.2761499303
  31
0.0000000000
  0
LINE
  5
f0
100
AcDbEntity
  8
Слой_1
100
AcDbLine
  6
K5LT_BASIC
  62
     5
  10
-74.4319167754
  20
257.2761499303
  30
0.0000000000
  11
-70.4319167754
  21
257.2761499303
  31
0.0000000000
  0
LINE
  5
f1
100
AcDbEntity
  8
Слой_1
100
AcDbLine
  6
K5LT_BASIC
  62
     5
  10
-70.4319167754
  20
283.6178913156
  30
0.0000000000
  11
-74.4319167754
  21
283.6178913156
  31
0.0000000000
  0
LINE
  5
f2
100
AcDbEntity
  8
Слой_1
100
AcDbLine
  6
K5LT_BASIC
  62
     5
  10
-243.2037148537
  20
159.7560043726
  30
0.0000000000
  11
-239.2035602492
  21
159.6712557958
  31
0.0000000000
  0
LINE
  5
f3
100
AcDbEntity
  8
Слой_1
100
AcDbLine
  6
K5LT_BASIC
  62
     5
  10
-239.2497007169
  20
186.0094343641
  30
0.0000000000
  11
-243.2497171227
  21
186.0152955204
  31
0.0000000000
  0
LINE
  5
f4
100
AcDbEntity
  8
Слой_1
100
AcDbLine
  6
K5LT_BASIC
  62
     5
  10
-18.5814889478
  20
283.6178913156
  30
0.0000000000
  11
-18.5814889478
  21
313.1139948055
  31
0.0000000000
  0
LINE
  5
f5
100
AcDbEntity
  8
Слой_1
100
AcDbLine
  6
K5LT_BASIC
  62
     5
  10
-74.4319167754
  20
283.6178913156
  30
0.0000000000
  11
-74.4319167754
  21
313.1139948055
  31
0.0000000000
  0
LINE
  5
f6
100
AcDbEntity
  8
Слой_1
100
AcDbLine
  6
K5LT_BASIC
  62
     5
  10
-243.2497171227
  20
186.0152955204
  30
0.0000000000
  11
-243.3015228959
  21
215.5873778145
  31
0.0000000000
  0
LINE
  5
f7
100
AcDbEntity
  8
Слой_1
100
AcDbLine
  6
K5LT_BASIC
  62
     5
  10
-227.2019708078
  20
247.1087158387
  30
0.0000000000
  11
-227.2019708078
  21
271.0117761130
  31
0.0000000000
  0
LINE
  5
f8
100
AcDbEntity
  8
Слой_1
100
AcDbLine
  6
K5LT_BASIC
  62
     5
  10
-246.2019708078
  20
291.2276336727
  30
0.0000000000
  11
-246.2019708078
  21
291.0009075317
  31
0.0000000000
  0
LINE
  5
f9
100
AcDbEntity
  8
Слой_1
100
AcDbLine
  6
K5LT_BASIC
  62
     5
  10
-246.2019708078
  20
291.0009075317
  30
0.0000000000
  11
-246.2019708078
  21
271.0117761130
  31
0.0000000000
  0
LINE
  5
fa
100
AcDbEntity
  8
Слой_1
100
AcDbLine
  6
K5LT_BASIC
  62
     5
  10
-246.2019708078
  20
271.0117761130
  30
0.0000000000
  11
-250.2019708078
  21
271.0117761130
  31
0.0000000000
  0
LINE
  5
fb
100
AcDbEntity
  8
Слой_1
100
AcDbLine
  6
K5LT_BASIC
  62
     5
  10
-250.2019708078
  20
271.0117761130
  30
0.0000000000
  11
-250.2019708078
  21
247.1087158387
  31
0.0000000000
  0
LINE
  5
fc
100
AcDbEntity
  8
Слой_1
100
AcDbLine
  6
K5LT_BASIC
  62
     5
  10
-250.2019708078
  20
247.1087158387
  30
0.0000000000
  11
-246.2019708078
  21
247.1016368266
  31
0.0000000000
  0
LINE
  5
fd
100
AcDbEntity
  8
Слой_1
100
AcDbLine
  6
K5LT_BASIC
  62
     5
  10
-246.2019708078
  20
247.1016368266
  30
0.0000000000
  11
-246.2019708078
  21
231.0117761130
  31
0.0000000000
  0
LINE
  5
fe
100
AcDbEntity
  8
Слой_1
100
AcDbLine
  6
K5LT_BASIC
  62
     5
  10
-246.2019708078
  20
231.0117761130
  30
0.0000000000
  11
-225.2019708078
  21
231.0117761130
  31
0.0000000000
  0
LINE
  5
ff
100
AcDbEntity
  8
Слой_1
100
AcDbLine
  6
K5LT_BASIC
  62
     5
  10
-223.2019708078
  20
247.1087158387
  30
0.0000000000
  11
-223.2019708078
  21
271.0117761130
  31
0.0000000000
  0
LINE
  5
100
100
AcDbEntity
  8
Слой_1
100
AcDbLine
  6
K5LT_BASIC
  62
     5
  10
-204.2019708078
  20
291.2276336727
  30
0.0000000000
  11
-204.2019708078
  21
291.0009075317
  31
0.0000000000
  0
LINE
  5
101
100
AcDbEntity
  8
Слой_1
100
AcDbLine
  6
K5LT_BASIC
  62
     5
  10
-204.2019708078
  20
291.0009075317
  30
0.0000000000
  11
-204.2019708078
  21
271.0117761130
  31
0.0000000000
  0
LINE
  5
102
100
AcDbEntity
  8
Слой_1
100
AcDbLine
  6
K5LT_BASIC
  62
     5
  10
-204.2019708078
  20
271.0117761130
  30
0.0000000000
  11
-200.2019708078
  21
271.0117761130
  31
0.0000000000
  0
LINE
  5
103
100
AcDbEntity
  8
Слой_1
100
AcDbLine
  6
K5LT_BASIC
  62
     5
  10
-200.2019708078
  20
271.0117761130
  30
0.0000000000
  11
-200.2019708078
  21
247.1087158387
  31
0.0000000000
  0
LINE
  5
104
100
AcDbEntity
  8
Слой_1
100
AcDbLine
  6
K5LT_BASIC
  62
     5
  10
-200.2019708078
  20
247.1087158387
  30
0.0000000000
  11
-204.2019708078
  21
247.1016368266
  31
0.0000000000
  0
LINE
  5
105
100
AcDbEntity
  8
Слой_1
100
AcDbLine
  6
K5LT_BASIC
  62
     5
  10
-204.2019708078
  20
247.1016368266
  30
0.0000000000
  11
-204.2019708078
  21
231.0117761130
  31
0.0000000000
  0
LINE
  5
106
100
AcDbEntity
  8
Слой_1
100
AcDbLine
  6
K5LT_BASIC
  62
     5
  10
-204.2019708078
  20
231.0117761130
  30
0.0000000000
  11
-225.2019708078
  21
231.0117761130
  31
0.0000000000
  0
LINE
  5
107
100
AcDbEntity
  8
Слой_1
100
AcDbLine
  6
K5LT_BASIC
  62
     5
  10
-227.2019708078
  20
271.0117761130
  30
0.0000000000
  11
-223.2019708078
  21
271.0117761130
  31
0.0000000000
  0
LINE
  5
108
100
AcDbEntity
  8
Слой_1
100
AcDbLine
  6
K5LT_BASIC
  62
     5
  10
-227.2019708078
  20
247.1087158387
  30
0.0000000000
  11
-223.2019708078
  21
247.1087158387
  31
0.0000000000
  0
LINE
  5
109
100
AcDbEntity
  8
Слой_1
100
AcDbLine
  6
K5LT_BASIC
  62
     5
  10
-246.2019708078
  20
291.0009075317
  30
0.0000000000
  11
-204.2019708078
  21
291.0009075317
  31
0.0000000000
  0
LINE
  5
10a
100
AcDbEntity
  8
Слой_1
100
AcDbLine
  6
K5LT_BASIC
  62
     5
  10
-185.3584757827
  20
225.2261593442
  30
0.0000000000
  11
-181.9709527431
  21
223.0984333298
  31
0.0000000000
  0
TEXT
  5
10b
100
AcDbEntity
  8
Слой_1
  62
     7
100
AcDbText
  10
-19.5713115217
  20
181.7129191245
  30
0.0000000000
  40
10.0000000000
  41
0.7000000000
  1
MИГ- 25
  7
K5_TEXTSTYLE
  50
0.0000000000
  51
20.0000000000
100
AcDbText
  0
ENDSEC
  0
SECTION
  2
OBJECTS
  0
DICTIONARY
  5
c
100
AcDbDictionary
  3
ACAD_GROUP
  350
d
  3
ACAD_MLINESTYLE
  350
1c
  0
DICTIONARY
  5
d
102
{ACAD_REACTORS
  330
c
102
}
100
AcDbDictionary
  0
DICTIONARY
  5
1c
102
{ACAD_REACTORS
  330
c
102
}
100
AcDbDictionary
  3
STANDARD
  350
1d
  0
MLINESTYLE
  5
1d
102
{ACAD_REACTORS
  330
1c
102
}
100
AcDbMlineStyle
  2
STANDARD
  70
     0
  3
 
  62
     256
  51
90.0000000000
  52
90.0000000000
  71
     2
  49
0.5000000000
  62
     256
  6
BYLAYER
  49
-0.5000000000
  62
     256
  6
BYLAYER
  0
ENDSEC
  0
EOF
